PrimaNota.ru - самый крупный в мире бесплатный архив песенных текстов, аккордов, табулатур и нот


Monkey Majik - Around The World - таба, видео

Регистрация Запомнить меня
Войти через:  Facebook Google Twitter Vk Yandex Mail.ru

Monkey Majik - Around The World - таба, видео

Печатать
Просмотров: 78
-------------------------------------------------------------------------------
                             AROUND THE WORLD - Monkey Majik
-------------------------------------------------------------------------------
Album: thank you
Tabbed by: GuetaMinute
Email: guetaminute@hotmail.com

Tuning: Standard

This is LIVE version. Only differences I could tell were the chorus parts.
Lead:
e|---14----------------------------------------------------------------------------------|
B|---15-----------14---------------------------------------------------------------------|
G|---16-----------14----11---------------------------------------------------------------|
D|---16---14------14----10---------------------------------------------------------------|
A|---14---14-----(12)---12---------------------------------------------------------------|
E|--------12------------10---------------------------------------------------------------|
x2 (The second time, instead of playing the last chord on the 10th fret, go to verse, 
which is below rhythm intro part.



Rhythm:
e|----14---15-----17-------15----14-----15---14--|
B|-----------------------------------------------|
G|-----------------------------------------------|
D|-----------------------------------------------|
A|-----------------------------------------------|
E|-----------------------------------------------|
x2

Obviously you just don't play those chords/notes once.
These tabs are to find the notes and chords out, not the progression or strumming or speed etc.

Verse:
e|--7---7---9-----(10)--9---7-----------------------------------------------------------|
B|--7---8---10-----12---10--6-----------------------------------------------------------|
G|--7---7---9------12---9---7-----------------------------------------------------------|
D|--7---9---11-----12---11--9-----------------------------------------------------------|
A|--9---7---9------10---9---7-----------------------------------------------------------|
E|--------------------------------------------------------------------------------------|

That repeats throughout the verse and also the ending
(the ending is the same as the verse but without vocals).

Pre-chorus Lead:
e|--7------|--------7---9------------------|
B|--7------|--------8---10-----------------|
G|--7------|--------7---9------------------|
D|--7------|--------9---11-----------------|
A|--9------|--------7---9--x3--------------|
E|---------|-------------------------------|

Then its:
e|--7-------7---------------|
B|--8-------8---------------|
G|--7-------7---------------|
D|--9-------7---------------|
A|--7-------7---------------|
E|--------------------------|

Then it goes to chorus, but wait, let's not forget the rhythm pre-chorus
Very simple, mute the B string and play the octaves along with lead chords.
e|---10------------12---|
B|----------------------|
G|---7-------------9----|
D|----------------------|
A|----------------------|
E|----------------------|

Chorus: There's two parts. Here is the LIVE version.
e|--7---5---5---3-----|
B|--8---5---7---3-----|
G|--7---6---6---4-----|
D|--9---7---7---5-----|
A|--7---7---5---5-----|
E|------5-------3-----|

And studio/original version
e|---7----5----5---5---|
B|---10---5----7---7---|
G|---7----6----6---7---|
D|---9----7----7---7---|
A|---7----7----5---5---|
E|--------5------------|

Personally I'm a fan of the LIVE version.
That's it, the whole song.

************************************

| /   slide up
| \   slide down
| h   hammer-on
| p   pull-off
| ~   vibrato
| +   harmonic
| x   Mute note
| b   Bend
| pb  Pre-bend
| br  Bend release
| pbr Pre-bend release
| brb Bend release bend

************************************
Добавлено: 24.06.2012
Другие материалы по этой песне:
  • Аккорды и текст

Страница создана 24.06.2012
http://primanota.ru/monkey-majik/around-the-world-chords.htm
Привет, Гость.
Предлагаем пройти революционный курс по гитаре.
Подарок от PrimaNota.Ru, забирай!