PrimaNota.ru - самый крупный в мире бесплатный архив песенных текстов, аккордов, табулатур и нот


Monkees - You and I - текст песни, бас-таба, видео

Регистрация Запомнить меня
Войти через:  Facebook Google Twitter Vk Yandex Mail.ru

Monkees - You and I - текст песни, бас-таба, видео

Печатать
Просмотров: 93
Авторы музыки: Davy Jones, Micky Dolenz

Tabbed by: 6METAL6BASSIST6
E-mail: petergriffinav@gmail.com

Tuning: About 1/4th down

0:04

G|7-/-|
D|----|
A|----|
E|----|

G|12--12--12--12--12--12--12--12--10--10--10--10--10--10--10--10--|
D|----------------------------------------------------------------|
A|----------------------------------------------------------------|
E|----------------------------------------------------------------|

G|--------------------------------7---7---7---7---7---7---7---7-/-|
D|8---8---8---8---8---8---8---8-----------------------------------|
A|----------------------------------------------------------------|
E|----------------------------------------------------------------|

G|12--12--12--12--12--12--12--12\-10--10--10--10--10--10--10--10--|
D|----------------------------------------------------------------|
A|----------------------------------------------------------------|
E|----------------------------------------------------------------|

G|--------------------------------7---7---7---7-------7-----------|
D|8---8---8---8---8---8---8---8---------------------7---7-0---7---|
A|----------------------------------------------------------------|
E|----------------------------------------------------------------|

G|------------------------------------------------------------7---|
D|5-------5-----0-5-------5---3---0-----------0---0---------7---/-|
A|----------------------------------------------------------------|
E|----------------------------------------------------------------|

G|------------------------------------------------------------------------/-|
D|5-----5-----5-----3-----3-----3-----3-----3-----3-----3-----3-----3-------|
A|--------------------------------------------------------------------------|
E|--------------------------------------------------------------------------|

0:30

G|12--12--12--12--12--12--12--12\-10--10--10--10--10--10--10--10--|
D|----------------------------------------------------------------|
A|----------------------------------------------------------------|
E|----------------------------------------------------------------|

G|--------------------------------7---7---7---7---7---7---7---7-/-|
D|8---8---8---8---8---8---8---8-----------------------------------|
A|----------------------------------------------------------------|
E|----------------------------------------------------------------|

G|12--12--12--12--12--12--12--12\-10--10--10--10--10--10--10--10--|
D|----------------------------------------------------------------|
A|----------------------------------------------------------------|
E|----------------------------------------------------------------|

G|--------------------------------7---7---7---7---------------7---|
D|8---8---8---8---8---8---8---8-------------------0-0-0---7-------|
A|----------------------------------------------------------------|
E|----------------------------------------------------------------|

G|------------------------------------------------------------7---|
D|5-----------5---5---------0-3---0-----------0---0---------7---/-|
A|----------------------------------------------------------------|
E|----------------------------------------------------------------|

G|--------------------------------------------------------------------------|
D|5-----5-----5-----3-----3-----3-----3-----3-----3-----3-----3-----3-------|
A|--------------------------------------------------------------------------|
E|--------------------------------------------------------------------------|

0:55

G|----------------------------------------------------------------|
D|1-------1-------1-------1-------1-------1-------1-------1---3---|
A|----------------------------1-----------------------------------|
E|----------------------------------------------------------------|

G|----------------------------------------------------------------|
D|5---5-------0---5---5-------0---5---5-------0---5---5-------0---|
A|----------------------------------------------------------------|
E|----------------------------------------------------------------|

G|----------------------------------------------------------------|
D|1-------1-------1-------1-------1-------1-------1-------1---3---|
A|----------------------------1-----------------------------------|
E|----------------------------------------------------------------|

G|------------------------------------------------------------7-/-|
D|5---5-------0---5---5-------0---5---5-------0---5---5-----------|
A|----------------------------------------------------------------|
E|----------------------------------------------------------------|

1:13

G|12--12--12--12--12--12--12--12\-10--10--10--10--10--10--10--10--|
D|----------------------------------------------------------------|
A|----------------------------------------------------------------|
E|----------------------------------------------------------------|

G|--------------------------------7---7---7---7---7---7---7---7-/-|
D|8---8---8---8---8---8---8---8-----------------------------------|
A|----------------------------------------------------------------|
E|----------------------------------------------------------------|

G|12--12--12--12--12--12--12--12\-10--10--10--10--10--10--10--10--|
D|----------------------------------------------------------------|
A|----------------------------------------------------------------|
E|----------------------------------------------------------------|

G|--------------------------------7-------7-----7-------------7---|
D|8---8---8---8---8---8---8---8---------------7-----7-0---7-------|
A|----------------------------------------------------------------|
E|----------------------------------------------------------------|

G|------------------------------------------------------------7---|
D|5-----------5---5---------0-3---0-----------0---0---------7---/-|
A|----------------------------------------------------------------|
E|----------------------------------------------------------------|

G|------------------------------------------------------------------------/-|
D|5-----5-----5-----3-----3-----3-----3-----3-----3-----3-----3-----3-------|
A|--------------------------------------------------------------------------|
E|--------------------------------------------------------------------------|

1:38

G|12--12--12--12--12--12--12--12\-10--10--10--10--10--10--10--10--|
D|----------------------------------------------------------------|
A|----------------------------------------------------------------|
E|----------------------------------------------------------------|

G|--------------------------------7---7---7---7---7---7---7---7-/-|
D|8---8---8---8---8---8---8---8-----------------------------------|
A|----------------------------------------------------------------|
E|----------------------------------------------------------------|

G|12--12--12--12--12--12--12--12\-10--10--10--10--10--10--10--10--|
D|----------------------------------------------------------------|
A|----------------------------------------------------------------|
E|----------------------------------------------------------------|

G|--------------------------------7---7---7---7-------7-----------|
D|8---8---8---8---8---8---8---8---------------------7---7-0---7---|
A|----------------------------------------------------------------|
E|----------------------------------------------------------------|

G|------------------------------------------------------------7---|
D|5-----------5---5---------0-3---0-----------0---0---------7---/-|
A|----------------------------------------------------------------|
E|----------------------------------------------------------------|

G|--------------------------------------------------------------------------|
D|5-----5-----5-----3-----3-----3-----3-----3-----3-----3-----3-----3-------|
A|--------------------------------------------------------------------------|
E|--------------------------------------------------------------------------|

G|--------------------------------|
D|1-------------------------------|
A|--------------------------------|
E|--------------------------------|
Добавлено: 04.03.2016
Другие материалы по этой песне:
  • Аккорды и текст

Страница создана 29.08.2013
http://primanota.ru/monkees/you-and-i-chords.htm
Привет, Гость.
Предлагаем пройти революционный курс по гитаре.
Подарок от PrimaNota.Ru, забирай!