PrimaNota.ru - самый крупный в мире бесплатный архив песенных текстов, аккордов, табулатур и нот


Monkees - When Love Comes Knockin (at Your Door) - текст песни, бас-таба, видео

Регистрация Запомнить меня
Войти через:  Facebook Google Twitter Vk Yandex Mail.ru

Monkees - When Love Comes Knockin (at Your Door) - текст песни, бас-таба, видео

Печатать
Просмотров: 30
Уроки эстрадного вокала в Санкт-Петербурге
Авторы: Carole Bayer Sager, Neil Sedaka

Tabbed by: 6METAL6BASSIST6
E-mail: petergriffinav@gmail.com

Tuning: EADG

G|----------------------------------------------------------------|
D|----------------------------------------------------------------|
A|6---------------3---------3-3---6-----------6---3---------3-3---|
E|----------------------------------------------------------------|

G|--------------------------------|
D|--------------------------------|
A|6---------------3---------------|
E|--------------------------------|

0:08

G|----------------------------------------------------------------|
D|----------------5-----5-5---8---6-------------5-6-----6-6---6---|
A|--------5-------------------------------6-----------------------|
E|3---------------------------------------------------------------|

G|----------------------------------------------------------------|
D|--------8-----------8-8---5-------------7-------------------4---|
A|6---------------6-----------6---5---------------5-----5-7-------|
E|----------------------------------------------------------------|

G|----------------------------------------------------------------|
D|5-------7-------8-------5-------------------------------------2-|
A|----------------------------5-----------------2-3-----3-3-------|
E|--------------------------------3-------3-----------------------|

G|----------------------------------------------------------------|
D|3-----3-3-----7-8-----------------------------------------------|
A|----------------------------5---6---------------3---------------|
E|--------------------6---8---------------------------------------|

0:28

G|----------------------------------------------------------------|
D|----------------5-----------8---6-------------5-6-----6-6---6---|
A|--------5-------------5-5---------------6-----------------------|
E|3---------------------------------------------------------------|

G|----------------------------------------------------------------|
D|5-------------5-5---3-------------------------------------------|
A|--------5---------------6---5---3-------3-----3-2-------2-------|
E|--------------------------------------------------------------2-|

G|----------------------------------------------------------------|
D|------------------------------------------------8-----8-8-------|
A|1-------1-------0-----0-0---3---1-------1-----------------------|
E|------------------------------------------------------------6---|

G|----------------------------------------------------------------|
D|--------8-----------8-8---5-------------9-----------9---9-------|
A|6---------------6-----------6---7---------------7---------------|
E|------------------------------------------------------------7---|

G|--------------------------------|
D|--------------------------------|
A|7---------------4---------------|
E|--------------------------------|

0:51

G|----------------------------------------------------------------|
D|----------------6-----------9---7-------------6-7-----7-7---7---|
A|--------6-------------6-6---------------7-----------------------|
E|4---------------------------------------------------------------|

G|----------------------------------------------------------------|
D|--------9-----------9---6---------------8-------------------5---|
A|7-------------7-7-----------7---6---------------6-----6-8-------|
E|----------------------------------------------------------------|

G|----------------------------------------------------------------|
D|6-------8-------9-------6-------6-------6-----------------------|
A|--------------------------------------------6---4-------4-------|
E|----------------------------------------------------------------|

G|----------------------------------------------------------------|
D|------------3---4-----------------------------------------------|
A|4-----4-4-----------2---4---6---7---------------4---------------|
E|----------------------------------------------------------------|

1:11

G|----------------------------------------------------------------|
D|----------------6-----------6---7-------------6-7-----7-7---7---|
A|--------6---------------6---------------7-----------------------|
E|4---------------------------------------------------------------|

G|----------------------------------------------------------------|
D|6-------------4-6---6-6---4-------------------------------------|
A|--------6-------------------6---4-------4-----4-3-------3-------|
E|--------------------------------------------------------------3-|

G|----------------------------------------------------------------|
D|----------------------------------------9-----------9-9---9-9---|
A|2-----2-2-----2-1-----1-1---1---2-------------------------------|
E|------------------------------------------------7---------------|

G|----------------------------------------------------------------|
D|----------------------------3---4-------6-------7-----8/9-------|
A|5-------5-----5-4-----4-6---------------------------------------|
E|------------------------------------------------------------7---|

G|----------------------------------------------------------------|
D|--------9-----------9-9---6-------------7-----------7-7---4-----|
A|7---------------7-----------7---5---------------5-----------5-6/|
E|----------------------------------------------------------------|

G|----------------------------------------------------------------|
D|--------9-----------9-9---6-------------7-----------7-7---4-----|
A|7-------------7-7-----------7---5---------------5-----------5---|
E|------------------------------5---------------------------------|

G|--------------------------------|
D|--------------------------------|
A|7-------------------------------|
E|--------------------------------|
Добавлено: 25.06.2017
Другие материалы по этой песне:
  • Аккорды и текст

Страница создана 07.04.2012
http://primanota.ru/monkees/when-love-comes-knockin-at-your-door-chords.htm
Привет, Гость.
Предлагаем пройти революционный курс по гитаре.
Подарок от PrimaNota.Ru, забирай!