PrimaNota.ru - самый крупный в мире бесплатный архив песенных текстов, аккордов, табулатур и нот


Monkees - War Games - текст песни, бас-таба, видео

Регистрация Запомнить меня
Войти через:  Facebook Google Twitter Vk Yandex Mail.ru

Monkees - War Games - текст песни, бас-таба, видео

Печатать
Просмотров: 91
Уроки эстрадного вокала в Санкт-Петербурге
Tabbed by: 6METAL6BASSIST6
E-mail: petergriffinav@gmail.com

Tuning: EADG

Version 2 and my favorite Monkees song.

G|--|
D|--|
A|/-|
E|--|

G|----------------------------------------------------------------|
D|----------------------------------------------------------------|
A|5-----------5-----------------/-5-----------5-----------------/-|
E|----------------3-----------3-------------------3-----------3---|

G|--------------------------------|
D|--------------------------------|
A|5-----------5-----------------/-|
E|----------------3-----------3---|

0:09

G|----------------------------------------------------------------|
D|----------------------------------------------------------------|
A|5-----------5-----------------/-5-----------5-----------------/-|
E|----------------3-----------3-------------------3-----------3---|

G|----------------------------------------------------------------|
D|----------------------------------------------------------------|
A|5-----------5---0-----------0-/-5-----------5-----------------/-|
E|------------------------------------------------3-----------3---|

G|----------------------------------------------------------------|
D|----------------------------------------------------------------|
A|5-----------5-----------------/-5-----------5-----------------/-|
E|----------------3-----------3-------------------3-----------3---|

G|----------------------------------------------------------------|
D|----------------------------------------------------------------|
A|5-----------5---0-----------0-/-5-----------0---5---------------|
E|--------------------------------------------------------2---3---|

0:30

G|----------------------------------------------------------------|
D|----------------------------------------------------------------|
A|0-------0-------0---0-------0---------------------------------/-|
E|--------------------------------3-------3-------3---3-------3---|

G|----------------------------------------------------------------|
D|----------------------------------------------------------------|
A|5-----------5---0-----------0-/-5-----------0---5---------------|
E|--------------------------------------------------------2---3---|

G|----------------------------------------------------------------|
D|----------------------------------------------------------------|
A|0-------0-------0---0-------0---------------------------------/-|
E|--------------------------------3-------3-----3-3---3-------3---|

G|----------------------------------------------------------------|
D|----------------------------------------------------------------|
A|5-----------------------------/-5-----------5-----------------/-|
E|----------------3-----------3-------------------3-----------3---|

0:51

G|----------------------------------------------------------------|
D|----------------------------------------------------------------|
A|5-----------5-----------------/-5-----------5-----------------/-|
E|----------------3-----------3-------------------3-----------3---|

G|----------------------------------------------------------------|
D|----------------------------------------------------------------|
A|5-----------5---0-----------0-/-5-----------5-----------------/-|
E|------------------------------------------------3-----------3---|

G|----------------------------------------------------------------|
D|----------------------------------------------------------------|
A|5-----------5-----------------/-5-----------5-----------------/-|
E|----------------3-----------3-------------------3-----------3---|

G|----------------------------------------------------------------|
D|----------------------------------------------------------------|
A|5-----------5---0-----------0-/-5-----------0---5---------------|
E|--------------------------------------------------------2---3---|

1:13

G|----------------------------------------------------------------|
D|----------------------------------------------------------------|
A|0-------0-------0---0-------0---------------------------------/-|
E|--------------------------------3-------3-------3---3-----------|

G|----------------------------------------------------------------|
D|----------------------------------------------------------------|
A|5-----------5---0-----------0-/-5-----------0---5---------------|
E|--------------------------------------------------------2---3---|

G|----------------------------------------------------------------|
D|----------------------------------------------------------------|
A|0-------0-------0---0-------0---------------------------------/-|
E|--------------------------------3-------3-------3---3-------3---|

G|----------------------------------------------------------------|
D|----------------------------------------------------------------|
A|5-----------------------------/-5-----------5-----------------/-|
E|----------------3-----------3-------------------3-----------3---|

1:35

G|----------------------------------------------------------------|
D|----------------------------------------------------------------|
A|5-----------5-----------------/-5-----------5-----------------/-|
E|----------------3-----------3-------------------3-----------3---|

G|----------------------------------------------------------------|
D|----------------------------------------------------------------|
A|5-----------5---0-----------0-/-5-----------5-----------------/-|
E|------------------------------------------------3-----------3---|

G|----------------------------------------------------------------|
D|----------------------------------------------------------------|
A|5-----------5-----------------/-5-----------5-----------------/-|
E|----------------3-----------3-------------------3-----------3---|

G|----------------------------------------------------------------|
D|----------------------------------------------------------------|
A|5-----------5---0-----------0-/-5-----------0---5---------------|
E|--------------------------------------------------------2---3---|

1:56

G|----------------------------------------------------------------|
D|----------------------------------------------------------------|
A|0-------0-------0---0-------0---------------------------------/-|
E|--------------------------------3-------3-------3---3-------3---|

G|----------------------------------------------------------------|
D|----------------------------------------------------------------|
A|5-----------5---0-----------0-/-5-----------0---5---------------|
E|--------------------------------------------------------2---3---|

G|----------------------------------------------------------------|
D|----------------------------------------------------------------|
A|0-------0-------0---0-------0---------------------------------/-|
E|--------------------------------3-------3-------3---3-------3---|

2:12

G|----------------------------------------------------------------|
D|----------------------------------------------------------------|
A|5-----------5-----------------/-5-----------5-----------------/-|
E|----------------3-----------3-------------------3-----------3---|

G|----------------------------------------------------------------|
D|----------------------------------------------------------------|
A|5-----------5-----------------/-5-----------5-----------------/-|
E|----------------3-----------3-------------------3-----------3---|

G|----------------------------------------------------------------|
D|----------------------------------------------------------------|
A|5-----------5-----------------------5---------------------------|
E|----------------3-------------3---------------------------------|
Добавлено: 08.04.2016
Другие материалы по этой песне:
  • Аккорды и текст

Страница создана 04.12.2013
http://primanota.ru/monkees/war-games-chords.htm
Привет, Гость.
Предлагаем пройти революционный курс по гитаре.
Подарок от PrimaNota.Ru, забирай!