PrimaNota.ru - самый крупный в мире бесплатный архив песенных текстов, аккордов, табулатур и нот


Monkees - Time and Time Again - текст песни, бас-таба, видео

Регистрация Запомнить меня
Войти через:  Facebook Google Twitter Vk Yandex Mail.ru

Monkees - Time and Time Again - текст песни, бас-таба, видео

Печатать
Просмотров: 33
Уроки эстрадного вокала в Санкт-Петербурге
Tabbed by: 6METAL6BASSIST6
E-mail: petergriffinav@gmail.com

Tuning: EADG

G|----------------------------------------------------------------|
D|------------------------------------------------------------7-7-|
A|----------------------------------------------------------------|
E|----------------------------------------------------------------|

G|----------------------------------------------------------------|
D|7---------------7-----------7-7-7---------------7-----------7-7-|
A|----------------------------------------------------------------|
E|----------------------------------------------------------------|

0:11

G|----------------------------------------------------------------|
D|7---------------7-----------7-7-7---------------7-----------7-7-| x2
A|----------------------------------------------------------------|
E|----------------------------------------------------------------|

G|----------------------------------------------------------------|
D|7---------------7-----------7-7-7---------------7---------------|
A|----------------------------------------------------------------|
E|----------------------------------------------------------------|

G|----------------------------------------------------------------|
D|5---------------------------------------------------------------|
A|--------------------------------7---------------7-----------7---|
E|----------------------------------------------------------------|

0:31

G|----------------------------------------------------------------|
D|7---------------7-----------7-7-7---------------7-----------7-7-| x2
A|----------------------------------------------------------------|
E|----------------------------------------------------------------|

G|----------------------------------------------------------------|
D|7---------------7-----------7-7-7---------------7---------------|
A|----------------------------------------------------------------|
E|----------------------------------------------------------------|

G|----------------------------------------------------------------|
D|5---------------------------------------------------------------|
A|--------------------------------7---------------7---------------|
E|----------------------------------------------------------------|

0:52

G|----------------------------------------------------------------|
D|----------------------------------------------------------------|
A|12--12--12--12--12--12--12--12--12--12--12--12--12--12--12--12--|
E|----------------------------------------------------------------|

G|----------------------------------------------------------------|
D|----------------------------------------------------------------|
A|12--12--12--12--12--12--12--12----------------------------------|
E|--------------------------------5-----------5---/---------------|

G|----------------------------------------------------------------|
D|----------------------------------------------------------------|
A|12--12--12--12--12--12--12--12--12--12--12--12--12--12--12--12--|
E|----------------------------------------------------------------|

G|----------------------------------------------------------------|
D|----------------------------------------------------------------|
A|12--12--12--12--12--12--12--------------------------------------|
E|--------------------------------5---------------5-----------5---|

1:12

G|----------------------------------------------------------------|
D|7---------------7-----------7-7-7---------------7-----------7-7-| x2
A|----------------------------------------------------------------|
E|----------------------------------------------------------------|

G|----------------------------------------------------------------|
D|7---------------7-----------7-7-7---------------7---------------|
A|----------------------------------------------------------------|
E|----------------------------------------------------------------|

G|----------------------------------------------------------------|
D|5---------------------------------------------------------------|
A|--------------------------------7---------------7---------------|
E|----------------------------------------------------------------|

1:33

G|----------------------------------------------------------------|
D|----------------------------------------------------------------|
A|12--12--12--12--12--12--12--12--12--12--12--12--12--12--12--12--|
E|----------------------------------------------------------------|

G|----------------------------------------------------------------|
D|----------------------------------------------------------------|
A|12--12--12--12--12--12--12--12----------------------------------|
E|--------------------------------5---5---5---5---/---------------|

G|----------------------------------------------------------------|
D|----------------------------------------------------------------|
A|12--12--12--12--12--12--12--12--12--12--12--12--12--12--12--12--|
E|----------------------------------------------------------------|

G|----------------------------------------------------------------|
D|----------------------------------------------------------------|
A|12--12--12--12--12--12--12--\-----------------------------------|
E|--------------------------------5---------------5-----------5---|

1:55

G|----------------------------------------------------------------|
D|7---------------7-----------7-7-7---------------7-----------7-7-| x2
A|----------------------------------------------------------------|
E|----------------------------------------------------------------|

G|----------------------------------------------------------------|
D|7---------------7-----------7-7-7---------------7---------------|
A|----------------------------------------------------------------|
E|----------------------------------------------------------------|

G|----------------------------------------------------------------|
D|5---------------------------------------------------------------|
A|--------------------------------7---------------7-----------7---|
E|----------------------------------------------------------------|

2:15

G|----------------------------------------------------------------|
D|7---------------7-----------7-7-7---------------7-----------7-7-| x2
A|----------------------------------------------------------------|
E|----------------------------------------------------------------|

G|----------------------------------------------------------------|
D|7---------------7-----------7-7-7---------------7---------------|
A|------------------------------------------------------------7---|
E|----------------------------------------------------------------|

G|--------------------------------|
D|--------------------------------|
A|--------------------------------|
E|5-------------------------------|
Добавлено: 26.10.2017
Другие материалы по этой песне:
  • Аккорды и текст

Страница создана 21.02.2014
http://primanota.ru/monkees/time-and-time-again-chords.htm
Привет, Гость.
Предлагаем пройти революционный курс по гитаре.
Подарок от PrimaNota.Ru, забирай!