PrimaNota.ru - самый крупный в мире бесплатный архив песенных текстов, аккордов, табулатур и нот


Monkees - So Goes Love - текст песни, бас-таба, видео

Регистрация Запомнить меня
Войти через:  Facebook Google Twitter Vk Yandex Mail.ru

Monkees - So Goes Love - текст песни, бас-таба, видео

Печатать
Просмотров: 36
Новый альбом группы 'Черный Кузнец' по культовому сериалу 'Сверхъестественное'!
Tabbed by: 6METAL6BASSIST6
E-mail: petergriffinav@gmail.com

Tuning: BEADG

This song was played on a Dano bass but this will work too.

G|----------------------------------------------------------------|
D|----------------------------------------------------------------|
A|----------------------------------------------------------------|
E|--------------------------------3-----------3---3---------------|
B|3-----------3---3-----------------------------------------------|

G|----------------------------------------------------------------|
D|----------------------------------------------------------------|
A|----------------------------------------------------------------|
E|--------------------------------3-----------3---3-------5-\-----|
B|3-----------3---3-----------------------------------------------|

0:11

G|----------------------------------------------------------------|
D|----------------------------------------------------------------|
A|----------------------------------------------------------------|
E|--------------------------------3-----------3---3-------5-\-----|
B|3-----------3---3-----------------------------------------------|

G|----------------------------------------------------------------|
D|----------------------------------------------------------------|
A|----------------------------------------------------------------|
E|--------------------------------3-----------3-------------------|
B|3-----------3---3-------------------------------1-------1-------|

G|----------------------------------------------------------------|
D|----------------------------------------------------------------|
A|----------------------------------------------------------------|
E|1-----------1---1---------------5-----------5---5---------------|
B|----------------------------------------------------------------|

0:28

G|----------------------------------------------------------------|
D|----------------------------------------------------------------|
A|----------------------------------------------------------------|
E|--------------------------------3-----------3---3-------5-\-----|
B|3-----------3---3-----------------------------------------------|

G|----------------------------------------------------------------|
D|----------------------------------------------------------------|
A|----------------------------------------------------------------|
E|--------------------------------3-----------3-------------------|
B|3-----------3---3-------------------------------1-------1-------|

G|----------------------------------------------------------------|
D|----------------------------------------------------------------|
A|----------------------------------------------------------------|
E|1-----------1---1---------------1-----------1---1-------1-------|
B|----------------------------------------------------------------|

0:44

G|----------------------------------------------------------------|
D|----------------------------------------------------------------|
A|3-------3-------3-------3-------1-------1-------1-------1-------|
E|----------------------------------------------------------------|
B|----------------------------------------------------------------|

G|----------------------------------------------------------------|
D|----------------------------------------------------------------|
A|3-------3-------3-------3---------------------------------------|
E|--------------------------------1-------1-------1-------1-------|
B|----------------------------------------------------------------|

G|----------------------------------------------------------------|
D|----------------------------------------------------------------|
A|----------------------------------------------------------------|
E|----------------------------------------------------------------|
B|3-------3-------3-------3-------5-------5-------5-------5-------|

G|----------------------------------------------------------------|
D|----------------------------------------------------------------|
A|----------------------------------------------------------------|
E|5---------------3---------------2---------------0-------5-\-----|
B|----------------------------------------------------------------|

Repeat from 0:11







2:00

G|----------------------------------------------------------------|.
D|----------------------------------------------------------------|.
A|----------------------------------------------------------------|.
E|----------------------------------------------------------------|.
B|3-----------3---3---------------3-----------3---3---------------|.
                                                                   . x2
G|----------------------------------------------------------------|.
D|----------------------------------------------------------------|.
A|----------------------------------------------------------------|.
E|3-----------3---3---------------3-----------3---3---------------|.
B|----------------------------------------------------------------|.

G|----------------------------------------------------------------|
D|----------------------------------------------------------------|
A|----------------------------------------------------------------|
E|----------------------------------------------------------------|
B|3-----------3---3---------------3-------3-------3-------3-------|

G|----------------------------------------------------------------|
D|----------------------------------------------------------------|
A|----------------------------------------------------------------|
E|3-------3-------3-------3-------3-------3-------3-------3-------|
B|----------------------------------------------------------------|

2:32

G|----------------------------------------------------------------|
D|----------------------------------------------------------------|
A|3-------3-------3-------3-------1-------1-------1-------1-------|
E|----------------------------------------------------------------|
B|----------------------------------------------------------------|

G|----------------------------------------------------------------|
D|----------------------------------------------------------------|
A|3-------3-------3-------3---------------------------------------|
E|--------------------------------1-------1-------1-------1-------|
B|----------------------------------------------------------------|

G|----------------------------------------------------------------|
D|----------------------------------------------------------------|
A|----------------------------------------------------------------|
E|----------------------------------------------------------------|
B|3-------3-------3-------3-------5-------5-------5-------5-------|

G|----------------------------------------------------------------|
D|----------------------------------------------------------------|
A|----------------------------------------------------------------|
E|5---------------3---------------2---------------1-------5-\-----|
B|----------------------------------------------------------------|

2:54

G|----------------------------------------------------------------|
D|----------------------------------------------------------------| x3
A|----------------------------------------------------------------|
E|--------------------------------3-----------3---3-------5-\-----|
B|3-----------3---3-----------------------------------------------|

G|--------------------------------|
D|--------------------------------|
A|--------------------------------|
E|--------------------------------|
B|3-------------------------------|
Добавлено: 26.10.2017
Другие материалы по этой песне:
  • Аккорды и текст

Страница создана 03.12.2013
http://primanota.ru/monkees/so-goes-love-chords.htm
Привет, Гость.
Предлагаем пройти революционный курс по гитаре.
Подарок от PrimaNota.Ru, забирай!