PrimaNota.ru - самый крупный в мире бесплатный архив песенных текстов, аккордов, табулатур и нот


Monkees - Lady Jane - текст песни, бас-таба, видео

Регистрация Запомнить меня
Войти через:  Facebook Google Twitter Vk Yandex Mail.ru

Monkees - Lady Jane - текст песни, бас-таба, видео

Печатать
Просмотров: 55
Уроки эстрадного вокала в Санкт-Петербурге
Tabbed by: 6METAL6BASSIST6
E-mail: petergriffinav@gmail.com

Tuning: EADG

G|------|
D|------|
A|------|
E|7-\---|

G|------------------------------------------------------------------------------------------------|
D|------------------------------------------------------------------------------------------------| x2
A|------5---7-------5---7-------------------------------5---7-------5---7-------------------------|
E|0---7-----------7-------------------------------0---7-----------7-------------------------7-\---|

G|------------------------------------------------------------------------------------------------|
D|------------------------------------------------------------------------------------------------|
A|------5---7-------5---7-------------------------------5---7-------5---7-------------------------|
E|0---7-----------7-------------------------------0---7-----------7-------------------------------|

G|------------------------------------------------------------------------------------------------|
D|------------------------------------------------------------------------------------------------|
A|------5---7-------5-----7-----7-----------------------5---7-------5-----7-----------------------|
E|0---7-----------7-------------------------7-\---0---7-----------7-------------------------7-\---|

0:32

G|------------------------------------------------------------------------------------------------|
D|------------------------------------------------------------------------------------------------|
A|------5---7-------5---7-------------------------------5---7-------5---7-------------------------|
E|0---7-----------7-------------------------------0---7-----------7-------------------------------|

G|------------------------------------------------------------------------------------------------|
D|------------------------------------------------------------------------------------------------|
A|------5---7-------5---7-------------------------------5---7-------5---7-------------------------|
E|0---7-----------7-------------------------------0---7-----------7-------------------------7-\---|

G|------------------------------------------------------------------------------------------------|
D|------------------------------------------------------------------------------------------------|
A|------5---7-------5---7-------------------------------5---7-------5---7-------------------------|
E|0---7-----------7-------------------------------0---7-----------7-------------------------------|

G|------------------------------------------------------------------------------------------------|
D|------------------------------------------------------------------------------------------------|
A|------5---7-------5-----7-----7-----------------------5---7-------5-----7-----------------------|
E|0---7-----------7-------------------------7-\---0---7-----------7-------------------------7-\---|

1:02

G|------------------------------------------------------------------------------------------------|
D|------------------------------------------------------------------------------------------------|
A|------5---7-------5---7-------------------------------5---7-------5---7-------------------------|
E|0---7-----------7-------------------------------0---7-----------7-------------------------------|

G|------------------------------------------------------------------------------------------------|
D|------------------------------------------------------------------------------------------------|
A|------5---7-------5---7-------------------------------5---7-------5---7-------------------------|
E|0---7-----------7-------------------------------0---7-----------7-------------------------7-\---|

G|------------------------------------------------------------------------------------------------|
D|------------------------------------------------------------------------------------------------|
A|------5---7-------5---7-------------------------------5---7-------5---7-------------------------|
E|0---7-----------7-------------------------------0---7-----------7-------------------------------|

G|------------------------------------------------------------------------------------------------|
D|------------------------------------------------------------------------------------------------|
A|------5---7-------5-----7-----7-----------------------5---7-------5-----7-----------------------|
E|0---7-----------7-------------------------7-\---0---7-----------7-------------------------7-\---|

1:32

G|------------------------------------------------------------------------------------------------|
D|------------------------------------------------------------------------------------------------|
A|------5---7-------5---7-------------------------------5---7-------5---7-------------------------|
E|0---7-----------7-------------------------------0---7-----------7-------------------------------|

G|------------------------------------------------------------------------------------------------|
D|------------------------------------------------------------------------------------------------|
A|------5---7-------5---7-------------------------------5---7-------5---7-------------------------|
E|0---7-----------7-------------------------------0---7-----------7-------------------------7-\---|

G|------------------------------------------------------------------------------------------------|
D|------------------------------------------------------------------------------------------------|
A|------5---7-------5---7-------------------------------5---7-------5---7-------------------------|
E|0---7-----------7-------------------------------0---7-----------7-------------------------------|

G|------------------------------------------------------------------------------------------------|
D|------------------------------------------------------------------------------------------------|
A|------5---7-------5---7-------------------------------5---7-------5---7-------------------------|
E|0---7-----------7-------------------------------0---7-----------7-------------------------7-\---|

2:02

G|------------------------------------------------------------------------------------------------|
D|------------------------------------------------------------------------------------------------|
A|------5---7-------5---7-------------------------------5---7-------5---7-------------------------|
E|0---7-----------7-------------------------------0---7-----------7-------------------------------|

G|------------------------------------------------------------------------------------------------|
D|------------------------------------------------------------------------------------------------|
A|------5---7-------5---7-------------------------------5---7-------5---7-------------------------|
E|0---7-----------7-------------------------------0---7-----------7-------------------------7-\---|

G|------------------------------------------------------------------------------------------------|
D|------------------------------------------------------------------------------------------------| fades out
A|------5---7-------5---7-------------------------------5---7-------5---7-------------------------|   here.
E|0---7-----------7-------------------------------0---7-----------7-------------------------------|
Добавлено: 08.04.2016
Другие материалы по этой песне:
  • Аккорды и текст

Страница создана 02.11.2014
http://primanota.ru/monkees/lady-jane-chords.htm
Привет, Гость.
Предлагаем пройти революционный курс по гитаре.
Подарок от PrimaNota.Ru, забирай!