PrimaNota.ru - самый крупный в мире бесплатный архив песенных текстов, аккордов, табулатур и нот


Monkees - Ladies Aid Society - бас-таба, видео

Регистрация Запомнить меня
Войти через:  Facebook Google Twitter Vk Yandex Mail.ru

Monkees - Ladies Aid Society - бас-таба, видео

Печатать
Просмотров: 40
Tabbed by: 6METAL6BASSIST6
E-mail: petergriffinav@gmail.com

Tuning: EADG

G|-------------------------------------------------------------------------------------------------------------|
D|-------------------------------------------------------------------------------------------------------------|
A|------------------------3-----------------------5------------------------------------------------------------|
E|3-----------------------------------------------------------------------3------------------------------------|


0:08

G|------------------------------------------------------------------------------------------------|
D|5-----------------------7-----------------------------------7-----------5-----------------------|
A|------------5-----------------------7-----------5-----------------------------------5-----------|
E|------------------------------------------------------------------------------------------------|

G|------------------------------------------------------------------------------------------------|
D|5-----------------------7-----------------------7-----------------------------------7-----------|
A|------------5-----------------------7-----------------------7-----------5-----------------------|
E|------------------------------------------------------------------------------------------------|

G|------------------------------------------------------------------------------------------------|
D|5-----5-----------------7-----7-----------------7-----7-----------------9-----9-----------------|
A|------------7-----7-----------------7-----7-----------------5-----5-----------------9-----------|
E|------------------------------------------------------------------------------------------7-----|

G|------------------------------------------------------------------------------------------------|
D|------------------------7-----------------------7-----------------------5-----------------------|
A|7-----------7---------------------7-------------------------5-----------------5-----------------|
E|----------7-------------------------5-----------------------------------------------3-----------|

G|------------------------------------|
D|5-----------------------------------|
A|------------------5-----------------|
E|------------------------------------|

0:40

G|------------------------------------5-----------------------------------|
D|5-----------------5-----------------------------------5-----------------|
A|------------------------------------------------------------------------|
E|------------------------------------------------------------------------|

G|------------------------------------------------------------------------|
D|5-----------------5-----------------------------------------------------|
A|------------------------------------5-----------------5-----------------|
E|------------------------------------------------------------------------|

G|------------------------------------5-----------------------------------|
D|5-----------------5-----------------------------------5-----------------|
A|------------------------------------------------------------------------|
E|------------------------------------------------------------------------|

G|------------------------------------------------------------------------|
D|5-----------------------------------5-----------------------------------|
A|------------------5-----------------------5-----2-----------------------|
E|------------------------------------------------------3-----------------|

1:01

G|------------------------------------------------------------------------------------------------|
D|5-----------------------7-----------------------------------7-----------5-----------------------|
A|------------5-----------------------7-----------5-----------------------------------5-----------|
E|------------------------------------------------------------------------------------------------|

G|------------------------------------------------------------------------------------------------|
D|5-----------------------7-----------------------7-----------------------------------7-----------|
A|------------5-----------------------7-----------------------7-----------5-----------------------|
E|------------------------------------------------------------------------------------------------|

G|------------------------------------------------------------------------------------------------|
D|5-----5-----------------7-----7-----------------7-----7-----------------9-----9-----------------|
A|------------7-----7-----------------7-----7-----------------5-----5-----------------9-----------|
E|------------------------------------------------------------------------------------------7-----|

G|------------------------------------------------------------------------------------------------|
D|------------------------7-----------7---------------------7-------------5-----------------------|
A|7-----------7---------7-------------------------------------5-----------------5-----------------|
E|------------------------------------------------5-----------------------------------3-----------|

G|------------------------------------|
E|5-----------------------------------|
A|------------------5-----------------|
E|------------------------------------|

1:35

G|------------------------------------5-----------------------------------|
D|5-----------------5-----------------------------------5-----------------|
A|------------------------------------------------------------------------|
E|------------------------------------------------------------------------|

G|------------------------------------------------------------------------|
D|5-----------------5-----------------------------------------------------|
A|------------------------------------5-----------------5-----------------|
E|------------------------------------------------------------------------|

G|------------------------------------5-----------------------------------|
D|5-----------------5-----------------------------------5-----------------|
A|------------------------------------------------------------------------|
E|------------------------------------------------------------------------|

G|------------------------------------------------------------------------------|
D|5-----------------------------------5-----------------------------------------|
A|------------------5-----------------------5-----2-----------------------------|
E|------------------------------------------------------3-----------------------|

1:56

G|------------------------------------5-----------------------------------|
D|5-----------------5-----------------------------------5-----------------|
A|------------------------------------------------------------------------|
E|------------------------------------------------------------------------|

G|------------------------------------------------------------------------|
D|5-----------------5-----------------------------------------------------|
A|------------------------------------5-----------------5-----------------|
E|------------------------------------------------------------------------|

G|------------------------------------5-----------------------------------|
D|5-----------------5-----------------------------------5-----------------|
A|------------------------------------------------------------------------|
E|------------------------------------------------------------------------|

G|------------------------------------------------------------------------|
D|5-----------------------------------5-----------------------------------|
A|------------------5-----------------------5-----2-----------------------|
E|------------------------------------------------------3-----------------|

2:18

G|------------------------------------------------------5-----------------|
D|------------------4-----------------5---\-3---/-5-----------------------|
A|------------------------------------------------------------------------|
E|------------------------------------------------------------------------|

G|5-----------------5-----------------------------------7-----5-----------|
D|------------------------------------5-----------------------------7-----|
A|------------------------------------------------------------------------|
E|------------------------------------------------------------------------|

G|------------------------------------5-----------------------------------|
D|5-----------------5-----------------------------------5-----------------|
A|------------------------------------------------------------------------|
E|------------------------------------------------------------------------|

G|------------------------------------|
D|5-----------------------------------| fades out here.
A|------------------5-----------------|
E|------------------------------------|
Добавлено: 08.04.2016
Вам также может быть интересно:
Другие материалы по этой песне:
  • Аккорды и текст

Страница создана 08.04.2016
http://primanota.ru/monkees/ladies-aid-society-chords.htm
Привет, Гость.
Предлагаем пройти революционный курс по гитаре.
Подарок от PrimaNota.Ru, забирай!