PrimaNota.ru - самый крупный в мире бесплатный архив песенных текстов, аккордов, табулатур и нот


Monkees - Do It In The Name Of Love - текст песни, бас-таба, видео

Регистрация Запомнить меня
Войти через:  Facebook Google Twitter Vk Yandex Mail.ru

Monkees - Do It In The Name Of Love - текст песни, бас-таба, видео

Печатать
Просмотров: 79
Tabbed by: 6METAL6BASSIST6
E-mail: petergriffinav@gmail.com

Tuning: EADG

G|----------------------------------------------------------------|
D|5---5-------5-------------------5---5-------5-------------------|
A|--------------------5---7---5-----------------------5---7---5---|
E|----------------------------------------------------------------|

G|----------------------------------------------------------------|
D|5---5-------5-------------------5-------------------------------|
A|--------------------5---7---5---------------------------5---7---|
E|----------------------------------------------------------------|

G|----------------------------------------------------------------|
D|5---5-------5-------------------5---5-------5-------------------|
A|--------------------5---7---5-----------------------5---7---5---|
E|----------------------------------------------------------------|

G|----------------------------------------------------------------|
D|5---5-------5-------------------5-------------------------------|
A|--------------------5---7---5---------------------------5-h-7---|
E|----------------------------------------3---3---5-h-7-----------|

0:12

G|----------------------------------------------------------------|.
D|5---5-------5-------------------5---5-------5-------------------|.
A|--------------------5---7---5-----------------------5---7---5---|.
E|----------------------------------------------------------------|.
                                                                   .
G|----------------------------------------------------------------|.
D|5---5-------5-------------------5-------------------------------|.
A|--------------------5---7---5---------------------------5---7---|.
E|----------------------------------------------------------------|.
                                                                   . x2
G|----------------------------------------------------------------|.
D|5---5-------5-------------------5---5-------5-------------------|.
A|--------------------5---7---5-----------------------5---7---5---|.
E|----------------------------------------------------------------|.
                                                                   .
G|----------------------------------------------------------------|.
D|5---5-------5-------------------5-------------------------------|.
A|--------------------5---7---5---------------------------5-h-7---|.
E|----------------------------------------3---3---5-h-7-----------|.

0:34

G|--------------------4---5---6---7-----------7-------------------|.
D|5---5-------5---------------------------------------7-----------|.
A|--------------------------------------------------------5-------|.
E|----------------------------------------------------------------|.
                                                                   . x2
G|----------------------------------------------------------------|.
D|--------------------------------------------------------0-h-2---|.
A|3-----------3---3---2---0-----------------------0-h-2-----------|.
E|--------------------------------3-------3---3-------------------|.

Repeat from 0:12







1:18

G|----------------------------------------------------------------|.
D|5---5-------5-------------------5---5-------5-------------------|.
A|--------------------5---7---5-----------------------5---7---5---|.
E|----------------------------------------------------------------|.
                                                                   . x4
G|----------------------------------------------------------------|.
D|5---5-------5-------------------5-------------------------------|.
A|--------------------5---7---5-----------------------------------|.
E|----------------------------------------------------------------|.

1:41

G|--------------------4---5---6---7-----------7-------------------|
D|5---5-------5---------------------------------------7-----------|
A|--------------------------------------------------------5-------|
E|----------------------------------------------------------------|

G|----------------------------------------------------------------|
D|----------------------------------------------------------------|
A|3-----------3---3---2---0-------------------------------5-h-7---|
E|--------------------------------3-------3---3---5-h-7-----------|

G|--------------------4---5---6---7---7-------7-------------------|
D|5---5-------5---------------------------------------7-----------|
A|--------------------------------------------------------5-------|
E|----------------------------------------------------------------|

G|----------------------------------------------------------------|
D|----------------------------------------------------------------|
A|3---3-------3---3---2---0-------------------------------5-h-7---|
E|--------------------------------3-------3---3---5-h-7-----------|

G|--------------------4---5---6---7-----------7-------------------|
D|5---5-------5---------------------------------------7-----------|
A|--------------------------------------------------------5-------|
E|----------------------------------------------------------------|

G|----------------------------------------------------------------|
D|----------------------------------------------------------------|
A|3---3-------3---3---2---0-------------------------------5-h-7---|
E|--------------------------------3-------3---3---5-h-7-----------|

G|--------------------4---5---6---7-----------7-------------------|.
D|5---5-------5---------------------------------------7-----------|.
A|--------------------------------------------------------5-------|.
E|----------------------------------------------------------------|.
                                                                   . x2 to fadeout.
G|----------------------------------------------------------------|.
D|----------------------------------------------------------------|.
A|3-----------3---3---2---0-------------------------------5-h-7---|.
E|--------------------------------3-------3---3---5-h-7-----------|.
Добавлено: 02.03.2016
Другие материалы по этой песне:
  • Аккорды и текст

Страница создана 03.06.2012
http://primanota.ru/monkees/do-it-in-the-name-of-love-chords.htm
Привет, Гость.
Предлагаем пройти революционный курс по гитаре.
Подарок от PrimaNota.Ru, забирай!