PrimaNota.ru - самый крупный в мире бесплатный архив песенных текстов, аккордов, табулатур и нот


Monkees - Do I Have To Do This All Over Again - бас-таба, видео

Регистрация Запомнить меня
Войти через:  Facebook Google Twitter Vk Yandex Mail.ru

Monkees - Do I Have To Do This All Over Again - бас-таба, видео

Печатать
Просмотров: 40
Tabbed by: 6METAL6BASSIST6
E-mail: petergriffinav@gmail.com

Tuning: EADG

G|--------------|
D|/-7---5-------|
A|--------7-5-3-|
E|--------------|

G|----------------------------------------------------------------|
D|--------5---5-7---5-----5---------------5---5-7---5-----5-------|
A|0-----7---7-----------7-----7-\-0-----7---7-----------7-----7---|
E|----------------------------------------------------------------|

G|----------------------------------------------------------------|
D|----------------------------------------5---5-7---5-----5-------| x2
A|3-----3-3-3---2---2---2-2---7-\-0-----7---7-----------7-----7---|
E|----------------------------------------------------------------|

G|----------------------------------------------------------------|
D|--------------------------------------------------/-7---5-------|
A|3-----3-3-3---3-3---3---5---6---7---7---7---7---7---------7-5-3-|
E|----------------------------------------------------------------|

0:19

G|----------------------------------------------------------------|
D|--------5---5-7---5-----5---------------5---5-7---5-----5-------|
A|0-----7---7-----------7-----7-\-0-----7---7-----------7-----7---|
E|----------------------------------------------------------------|

G|----------------------------------------------------------------|
D|----------------------------------------5---5-7---5-----5-------|
A|3-----3-3-3---2-2-2---2-2---7-\-0-----7---7-----------7-----7---|
E|----------------------------------------------------------------|

G|----------------------------------------------------------------|
D|----------------------------------------5---5-7---5-----5-------|
A|3-----3-3-3---2---2---2-2---7-\-0-----7---7-----------7-----7---|
E|----------------------------------------------------------------|

G|----------------------------------------------------------------|
D|--------------------------------------------------/-7---5-------|
A|3-----3-3-3---3-3---3---5---6---7---7---7---7---7---------7-5-3-|
E|----------------------------------------------------------------|

0:35

G|----------------------------------------------------------------|
D|--------5---5-7---5-----5---------------5---5-7---5-----5-------|
A|0-----7---7-----------7-----7-\-0-----7---7-----------7-----7---|
E|----------------------------------------------------------------|

G|----------------------------------------------------------------|
D|7---7---5---5-7-----5-----------7-5-----------------------------|
A|----------7-------7-----------------7-5-3---5-7-----0-------0---|
E|----------------------------------------------------------------|

0:45

G|--------9---------------9---------------9---------------9-------|
D|------9---9-----------9---9-----------9---9-----------9---9-----|
A|5h7-----------5-5h7-------------5h7-----------5-5h7-----------5-|
E|----------------------------------------------------------------|

G|--------9---------------9---------------9-----------------------|
D|------9---9-----------9---9-----------9---9-------/-7---5-------|
A|5h7-------------5h7-----------5-5h7-----------5-5---------7-5-3-|
E|----------------------------------------------------------------|

0:55

G|----------------------------------------------------------------|
D|--------5---5-7---5-----5---------------5---5-7---5-----5-------|
A|0-----7---7-----------7-----7-\-0-----7---7-----------7-----7---|
E|----------------------------------------------------------------|

G|----------------------------------------------------------------|
D|----------------------------------------5---5-7---5-----5-------|
A|3-----3-3-3---2---2---2-2---7-\-0-----7---7-----------7-----7---|
E|----------------------------------------------------------------|

G|------------------------------------------------------------------|
D|------------------------------------------5---5-7---5-----5-------|
A|3-----3-3-3---2---2-2---2-2---7-\-0-----7---7-----------7-----7---|
E|------------------------------------------------------------------|

G|----------------------------------------------------------------|
D|--------------------------------------------------/-7---5-------|
A|3-----3-3-----3-3-----3-5---6---7---7---7---7---7---------7-5-3-|
E|----------------------------------------------------------------|

1:11

G|----------------------------------------------------------------|
D|--------5---5-7---5-----5---------------5---5-7---5-----5-------|
A|0-----7---7-----------7-----7-\-0-----7---7-----------7-----7---|
E|----------------------------------------------------------------|

G|----------------------------------------------------------------|
D|7---7---5---5-7-----5-----------7-5-----------------------------|
A|----------7-------7-----------------7-5-3---5-7-----0-----------|
E|----------------------------------------------------------------|

1:20

G|--------9---------------9---------------9---------------9-------|
D|------9---9-----------9---9-----------9---9-----------9---9-----|
A|5h7-------------5h7-------------5h7-------------5h7-------------|
E|----------------------------------------------------------------|

G|--------9---------------9---------------9-----------------------|
D|------9---9-----------9---9-----------9---9---------------------|
A|5h7-------------5h7-------------5h7-----------------7---5---4---|
E|----------------------------------------------------------------|

1:29

G|----------------------------------------------------------------|
D|----------------------------------------------------------------|
A|2-----2-2---7-------0---0-------2-----2-2---7-------0---0-------|
E|----------------------------------------------------------------|

G|------------------------------------------------------------------------|
D|------------7-----------------5-----------------7-----------------5-----| x2
A|0-h-7-----7-------------5-----------0-h-7-----7-------------5---------0h|
E|------------------3-----------------------------------3-----------------|

G|----------------------------------------------------------------|
D|----------------------------------------------------------------|
A|2-----2-----7-------0---0-------2-----2-----7-------0---0-------|
E|----------------------------------------------------------------|

G|------------------------------------------------------------------------|
D|------------7-----------------5-----------------7-----------------5-----| x2
A|0-h-7-----7-------------5-----------0-h-7-----7-------------5-----------|
E|------------------3-----------------------------------3-----------------|

1:50

G|------------------------------------------------------------9-----------|
D|------------------------------------------------------9-----------9-----|
A|5-h-7-----7-7-----5-h-7-----7-7-----5-h-7-7-7-7-------------------------|
E|------------------------------------------------------------------------|

G|------------------------------------------------------------------------|
D|----------------------------------------------------------/-7---5-------|
A|5-h-7-----7-7-----5-h-7-----7-7-----5-h-7-----7-7-----7-----------7-5-3-|
E|------------------------------------------------------------------------|

1:57

G|----------------------------------------------------------------|
D|--------5---5-7---5-----5---------------5---5-7---5-----5-------|
A|0-----7---7-----------7-----7-\-0-----7---7-----------7-----7---|
E|----------------------------------------------------------------|

G|----------------------------------------------------------------|
D|----------------------------------------5---5-7---5-----5-------| x2
A|3-----3-3-3-----2-----2-2---7-\-0-----7---7-----------7-----7---|
E|----------------------------------------------------------------|

G|----------------------------------------------------------------|
D|--------------------------------------------------/-7---5-------|
A|3-----3-3-3---3-3---3---5---6---7---7---7---7---7---------7-5-3-|
E|----------------------------------------------------------------|

2:15

G|----------------------------------------------------------------|
D|--------5---5-7---5-----5---------------5---5-7---5-----5-------|
A|0-----7---7-----------7-----7-\-0-----7---7-----------7-----7---|
E|----------------------------------------------------------------|

G|----------------------------------------------------------------|
D|7---7---5---5-7-----5-----------7-5-----------------------------|
A|----------7-------7-----------------7-5-3---5-7-----0-0---------|
E|----------------------------------------------------------------|

G|------------------------------------------------------------------|
D|7---7---5---5-7---7-9-----------10-9-7-5--------------------------|
A|----------7-----------------7------------7-----3-3---0-0------0-0-|
E|------------------------------------------------------------------|

G|------------------------------------------------------------------|
D|7---7---5---5-7---7-9-------9---10-9-7-5--------------------------|
A|----------7------------------------------7-----3-3---0-0------0-0-|
E|------------------------------------------------------------------|

G|----------------------------------------------------------------|
D|7---7---5---5-7-----5-----------7-5-----------------------------| fades out here.
A|----------7-------7-----------------7-5-3---5-7-----0-0---------|
E|----------------------------------------------------------------|
Добавлено: 08.04.2016
Другие материалы по этой песне:
  • Аккорды и текст

Страница создана 08.04.2016
http://primanota.ru/monkees/do-i-have-to-do-this-all-over-again-chords.htm
Привет, Гость.
Предлагаем пройти революционный курс по гитаре.
Подарок от PrimaNota.Ru, забирай!