PrimaNota.ru - самый крупный в мире бесплатный архив песенных текстов, аккордов, табулатур и нот


Monkees - Come On In - текст песни, бас-таба, видео

Регистрация Запомнить меня
Войти через:  Facebook Google Twitter Vk Yandex Mail.ru

Monkees - Come On In - текст песни, бас-таба, видео

Печатать
Просмотров: 48
Уроки эстрадного вокала в Санкт-Петербурге
Tabbed by: 6METAL6BASSIST6
E-mail: petergriffinav@gmail.com

Tuning: EADG

G|9-----|
D|------|
A|------|
E|------|

G|------------------------------------------------------------------------------------------9-----|
D|5-----------------------5-----5-----------------------------------------5-----5-----------------|
A|----------------------5-------------5-----7---------------------------5-------------------------|
E|------------------------------------------------3-----------------------------------------------|

G|------------------------------------------------------------------------------------------------|
D|5-----------------------5-----------------------------------------------5-----------5-----6-----|
A|----------------------5-------------5---7-\---------------------------5-------5-----------------|
E|------------------------------------------------3-----------------------------------------------|

0:15

G|------------------------------------------------------------------------------------------------|
D|7-----------------------7-----7-----------9-----------------------------------------------------|
A|----------------------7-------------------------5-----------------------5-----5-----7-----------|
E|----------------------------------------------------------------------5-------------------------|

G|------------------------------------------------------------------------------------------------|
D|------------------------5-----5-----------------------------------------5-----5-----------6-----|
A|----------------------5-------------5-----7---------------------------5-------------------------|
E|3-----------------------------------------------3-----------------------------------------------|

G|------------------------------------------------------------------------------------------------|
D|7-----------------------7-----7-----------9-----------------------------------------------------|
A|----------------------7-------------------------5-----------------------5-----5-----7-----5-----|
E|----------------------------------------------------------------------5-------------------------|

G|------------------------------------------------------------------------------------------------|
D|-------------------------5----5-----------------------------------------5-----------5-----7-----|
A|-----------------------5------------5-----7---------------------------5-------5-----------------|
E|3-----------------------------------------------3-----------------------------------------------|

0:37

G|------------------------------------------------------------------------------------------------|
D|9---------9-----------9-----9-----9-9-----------------------------------------------------------|
A|------------------9-----------------------9-----7-----------7---------7-----7-----7-7-----9-----|
E|------------------------------------------------------------------7-----------------------------|

G|------------------------------------------------------------------------------------------------|
D|7---------7-----------7-------------9-----7-----------------------------------------------------|
A|------------------7-----------------------------5---------5-5---------5-----5-----5-5-----7-----|
E|------------------------------------------------------------------5-----------------------------|

G|------------------------------------------------------------------------------------------------|
D|7---------7-7---------7-----7-----7-9-----7-----------------------------------------------------|
A|------------------7-----------------------------5-----------5-----------------------7-----------|
E|------------------------------------------------------------------------------------------------|

0:54

G|------------------------------------------------------------------------------------------------|
D|------------------------5-----------------------------------------------5-----------5-----6-----|
A|----------------------5-------------5-----7---------------------------5-------5-----------------|
E|3-----------------------------------------------3-----------------------------------------------|

G|------------------------------------------------------------------------------------------------|
D|7-----------------------7-----7-----------9-----------------------------------------------------|
A|----------------------7-------------------------5-----------------------5-----5-----7-----------|
E|----------------------------------------------------------------------5-------------------------|

G|------------------------------------------------------------------------------------------------|
D|------------------------5-----5-----------------------------------------5-----------5-----6-----|
A|----------------------5-------------------5---------------------------5-------5-----------------|
E|3-----------------------------------------------3-----------------------------------------------|

G|------------------------------------------------------------------------------------------------|
D|7-----------------------7-----7-----------9-----------------------------------------------------|
A|----------------------7-------------------------5-----------------------5-----5-----7-----5-----|
E|----------------------------------------------------------------------5-------------------------|

G|------------------------------------------------------------------------------------------------|
D|------------------------5-----5-----------------------------------------5-----------5-----7-----|
A|------------------------------------------5---------------------------5-------5-----------------|
E|3-----------------------------------------------3-----------------------------------------------|

1:20

G|------------------------------------------------------------------------------------------------|
D|9---------9-9---------9-----9-----9-9-----------------------------------------------------------|
A|------------------9-----------------------9-----7---------7-7---------7-----7-----7-7-----7-----|
E|------------------------------------------------------------------7-----------------------------|

G|------------------------------------------------------------------------------------------------|
D|7---------7-7---------7-----7-----7-9-----------------------------------------------------------|
A|------------------7-----------------------------5---------5-5---------5-----5-----5-5-----7-----|
E|------------------------------------------------------------------5-----------------------------|

G|------------------------------------------------------------------------------------------------|
D|7---------7-----------7-----7-----7-9-----7-----------------------------------------------------|
A|------------------7-----------------------------5-----------------------5-----5-----7-----------|
E|----------------------------------------------------------------------5-------------------------|

1:35

G|------------------------------------------------------------------------------------------------|
D|------------------------5-----5-----------------------------------------5---------5-------7-----|
A|----------------------5-------------5-----7---------------------------5-------------------------|
E|3-----------------------------------------------3-----------------------------------------------|

1:41

G|------------------------------------------------------------------------------------------------|
D|9---------9-9---------9-----9-----9-9-----------------------------------------------------------|
A|------------------9-----------------------9-----7---------7-----------7-----7-----7-7-----7-----|
E|------------------------------------------------------------------7-----------------------------|

G|------------------------------------------------------------------------------------------------|
D|7---------7-----------7-----7-------9-----------------------------------------------------------|
A|------------------7-----------------------------5---------5-----------5-----5-----5-5-----------|
E|------------------------------------------------------------------5-----------------------5-----|

G|------------------------------------------------------------------------------------------------|
D|7---------7-----------7-----7-----7-7-----------9-------9-----------9-------9-----9-9-----------|
A|------------------7-----------------------7---------------------9-------------------------9-----|
E|------------------------------------------------------------------------------------------------|

G|------------------------------------------------------------------------------------------------|
D|7---------7-7---------7-----7-----7-9-----------------------------------------------5-----6-----|
A|------------------7-----------------------------5-----------------------5-----------------------|
E|----------------------------------------------------------------------5-------------------------|

2:01

G|------------------------------------------------------------------------------------------------|
D|7-----------------------7-----7-----9-----------------------------------------------------------|
A|----------------------7-------------------------5-----------------------5-----------7-----5-----|
E|----------------------------------------------------------------------5-------------------------|

G|------------------------------------------------------------------------------------------------|
D|------------------------5-----5-----------------------------------------5-----------5-----6-----|
A|----------------------5-------------5-----7---------------------------5-------5-----------------|
E|3-----------------------------------------------3-----------------------------------------------|

G|------------------------------------------------------------------------------------------------|
D|7-----------------------7-----7-----9-----------------------------------------------------------|
A|----------------------7-------------------------5-----------------------5-----5-----7-----5-----|
E|----------------------------------------------------------------------5-------------------------|

G|------------------------------------------------------------------------------------------------|
D|------------------------5-----5-----------------------------------------5---------5-----5-7-----|
A|----------------------5-------------5-----7---------------------------5-------------------------|
E|3-----------------------------------------------3-----------------------------------------------|

2:24

G|------------------------------------------------------------------------------------------------|
D|9---------9-9---------9-----9-----9-------------------------------------------------------------|
A|------------------9-----------------------9-----7---------7-7---------7-----7-----7-------7-----|
E|------------------------------------------------------------------7-----------------------------|

G|------------------------------------------------------------------------------------------------|
D|7---------7-7---------7-----7-----7-9-----7-----------------------------------------------------|
A|------------------7-----------------------------5---------5-----------5-----5-----5-------7-----|
E|------------------------------------------------------------------5-----------------------------|

G|------------------------------------------------------------------------------------------------|
D|7---------7-----------7-----7-----7-9-----7-----------------------------------------------------|
A|------------------7-----------------------------------------------------5-----5-----7-----------|
E|------------------------------------------------------------5---------5-------------------------|

2:40

G|------------------------------------------------------------------------------------------------|
D|------------------------5-----5-----------------------------------------5-----------5-----6-----|
A|----------------------5-------------5-----7---------------------------5-------5-----------------|
E|3-----------------------------------------------3-----------------------------------------------|

G|------------------------------------------------------------------------------------------------|
D|7-----------------------7-----7-----9-----7-----------------------------------------------------|
A|----------------------7-------------------------5-----------------------5-----5-----7-----------|
E|----------------------------------------------------------------------5-------------------------|

G|------------------------------------------------------------------------------------------------|
D|------------------------5-----5-----------------------------------------------------5-----6-----|
A|------------------------------------5-----7-----------------------------------------------------|
E|3-----------------------------------------------3---------3-3---------3-----3-----3-------------|

G|------------------------------------------------------------------------------------------------|
D|7---------7-7---------7-----7-------9-----7-----------------------------------------------------|
A|------------------7-----------------------------5---------5-----------5-----5-----5-7-----5-----|
E|------------------------------------------------------------------5-----------------------------|

G|------------------------------------------------------------------------------------------------|
D|------------------------------------------------5---5-------------------------------------------|
A|------------------------------------------5---------------7-5-----------------------------------|
E|3---------3-3---------3-----3-----3-3-----------------------------3-----------------------------|
Добавлено: 25.06.2017
Другие материалы по этой песне:
  • Аккорды и текст

Страница создана 24.02.2012
http://primanota.ru/monkees/come-on-in-chords.htm
Привет, Гость.
Предлагаем пройти революционный курс по гитаре.
Подарок от PrimaNota.Ru, забирай!