PrimaNota.ru - самый крупный в мире бесплатный архив песенных текстов, аккордов, табулатур и нот


Monkees - Apples, Peaches, Bananas And Pears - текст песни, бас-таба, видео

Регистрация Запомнить меня
Войти через:  Facebook Google Twitter Vk Yandex Mail.ru

Monkees - Apples, Peaches, Bananas And Pears - текст песни, бас-таба, видео

Печатать
Просмотров: 72
Tabbed by: 6METAL6BASSIST6
E-mail: petergriffinav@gmail.com

Tuning: About 1/4th step down

0:05

G|----------------------------------------------------------------|
D|----------------------------------------------------------------|
A|----------------------------------------------------------------|
E|3-----------3-----------1-------3-------------------------------|

G|----------------------------------------------------------------|
D|5---------------3---------------5---------------5---------------|
A|----------------------------------------------------------------|
E|----------------------------------------------------------------|

0:12

G|------------------------------------------------------------------------------------------------|
D|2-----------0-----------------------------------------------------0-----5-----5-----4-----3-----|
A|------------------3-----2-----2-----2-----0-----------------2-----------------------------------|
E|------------------------------------------------3-----3-----------------------------------------|

G|------------------------------------4-----3-----2-----0-----------------------------------------|
D|2-----2-----0-----------------------------------------------4-----2-----0-----------------------|
A|------------------3-----2-----2---------------------------------2-------------3-----2-----0-----|
E|------------------------------------------------------------------------------------------------|

G|------------------------------------------------------------------------------------------------|
D|------------------0-----5-----3-----2-----0-----------------2-----5-----------------------------|
A|------------2-----------------------------------3-----3-----------------3-----3-----2-----0-----|
E|3-----3-----------------------------------------------------------------------------------------|

G|------------------------------------------------|
D|------------------------------------------------|
A|------------------------------------------------|
E|3-----------------------------------------------|

G|----------------------------------------------------------------------------------------|
D|----------------------------------------------------------------------------------------|
A|----------------------------------------------------------------------------------------|
E|3-----------3-----------1-------3-------------------------------------------------------|

0:33

G|------------------------------------------------------------------------------------------------|
D|2-----------0-----------------------------------------------------0-----5-----5-----4-----------|
A|------------------3-----2-----2-----2-----0-----------------2-----------------------------------|
E|------------------------------------------------3-----3-----------------------------------------|

G|------------------------------------4-----3-----2-----0-----------------------------------------|
D|2-----2-----0-----------------------------------------------4-----2-----0-----------------------|
A|------------------3-----2-----2---------------------------------2-------------3-----2-----0-----|
E|------------------------------------------------------------------------------------------------|

G|------------------------------------------------------------------------------------------------|
D|------------------0-----5-----3-----2-----0-----------------2-----5-----------------------------|
A|------------2-----------------------------------3-----3-----------------3-----3-----2-----0-----|
E|3-----3-----------------------------------------------------------------------------------------|

G|------------------------------------------------|
D|------------------------------------------------|
A|------------------------------------------------|
E|3-----------------------------------------------|

G|----------------------------------------------------------------|
D|----------------------------------------------------------------|
A|----------------------------------------------------------------|
E|3-----------3-----------1-------3-------------------------------|

0:52

G|------------2-----------------------------------------------------------5-----------------------|
D|0-----------------0-----5-----------0-----------------------5-----------------------5-----4-----|
A|------------------------------------------------3-----------------------------------------------|
E|------------------------------------------------------------------------------------------------|

G|------------4-----------------------------0-----2-----------------------------------------------|
D|2-----------------2-----------------2-----------------------2-----------0-----------------------|
A|------------------------3-----------------------------------------------------------0-----3-----|
E|------------------------------------------------------------------------------------------------|

G|------------------------------------------------|
D|0-----------------------0-----------------------|
A|------------0-----3-----------------------------|
E|------------------------------------------------|

G|----------------------------------------------------------------|
D|--------------------------------5---------------5---------------|
A|----------------------------------------------------------------|
E|----------------1-----------------------------------------------|

1:08

G|------------------------------------------------------------------------------------------------|
D|2-----------0-----------------------------------------------------0-----5-----5-----4-----3-----|
A|------------------3-----2-----2-----2-----0-----------------2-----------------------------------|
E|------------------------------------------------3-----3-----------------------------------------|

G|------------------------------------4-----3-----2-----0-----------------------------------------|
D|2-----2-----0-----------------------------------------------4-----2-----0-----------------------|
A|------------------3-----2-----2-----------------------------------------------3-----2-----0-----|
E|------------------------------------------------------------------------------------------------|

G|------------------------------------------------------------------------------------------------|
D|------------------0-----5-----3-----2-----0-----------------2-----5-----------------------------|
A|------------2-----------------------------------3-----3-----------------3-----3-----2-----0-----|
E|3-----3-----------------------------------------------------------------------------------------|

G|------------------------------------------------|
D|------------------------------------------------|
A|------------------------------------------------|
E|3-----------------------------------------------|

G|--------------------------------|
D|--------------------------------|
A|--------------------------------|
E|3-----------3-----------1-------|

1:26

G|------------------------------------------------------------------------------------------------|
D|------------------------------------------------------------------------------------------------| x4
A|------------------------------------------------------------------------------------------------|
E|3-----3-----3-----3-----3-----3-----3-----3-----3-----3-----3-----3-----3-----3-----3-----3-----|

G|------------------------------------------------|
D|------------------------------------------------|
A|------------------------------------------------|
E|3-----3-----3-----3-----3-----------------------|

1:48

G|------------------------------------------------------------------------------------------------|
D|2-----------0-----------------------------------------------------0-----5-----5-----4-----3-----|
A|------------------3-----2-----------2-----0-----------------2-----------------------------------|
E|------------------------------------------------3-----3-----------------------------------------|

G|------------------------------------4-----3-----2-----0-----------------------------------------|
D|2-----------0-----------------------------------------------4-----2-----0-----------------------|
A|------------------3-----2-----------------------------------------------------3-----2-----0-----|
E|------------------------------------------------------------------------------------------------|

G|------------------------------------------------------------------------------------------------|
D|------------------0-----5-----5-----2-----0-----------------2-----5-----------------------------|
A|------------2-----------------------------------3-----3-----------------3-----3-----2-----0-----|
E|3-----3-----------------------------------------------------------------------------------------|

G|------------------------------------------------|
D|------------------------------------------------|
A|------------------------------------------------|
E|3-----------------------------------------------|

G|----------------------------------------------------------------|
D|----------------------------------------------------------------|
A|----------------------------------------------------------------|
E|3-----------3-----------1-------3-------------------------------|

G|----------------------------------------------------------------|
D|5-----------3---------------------------------------------------|
A|---------------------------------5-----------3-----------5------|
E|----------------------------------------------------------------|

G|----------------------------------------------------------------|
D|----------------------------------------------------------------|
A|----------------------------------------------------------------|
E|3-----------3-----------1-------3-------------------------------|
Добавлено: 02.03.2016
Другие материалы по этой песне:
  • Аккорды и текст

Страница создана 18.04.2012
http://primanota.ru/monkees/apples-peaches-bananas-and-pears-chords.htm
Привет, Гость.
Предлагаем пройти революционный курс по гитаре.
Подарок от PrimaNota.Ru, забирай!