PrimaNota.ru - самый крупный в мире бесплатный архив песенных текстов, аккордов, табулатур и нот


Monkees - All of Your Toys - текст песни, бас-таба, видео

Регистрация Запомнить меня
Войти через:  Facebook Google Twitter Vk Yandex Mail.ru

Monkees - All of Your Toys - текст песни, бас-таба, видео

Печатать
Просмотров: 70
Tabbed by: 6METAL6BASSIST6
E-mail: petergriffinav@gmail.com

Tuning: EADG

0:11

G|9-|
D|--|
A|--|
E|--|

G|10----10----9-----9-----7-----7-----5-----5---7-8-----8-----6-----6-----5-----5-----3-----3---4-|
D|------------------------------------------------------------------------------------------------|
A|------------------------------------------------------------------------------------------------|
E|------------------------------------------------------------------------------------------------|

G|5-----5-----5-----5-----------------------5-----|
D|----------------------5-------------------------|
A|------------------------3-----3-----3---------3-|
E|------------------------------------------------|

0:22

G|------------------------------------------------------------------------------------------------|
D|3-----3-----------3-----------------6-----------3-----3-----------3-----------------6-----6-----|
A|------------3-----------4-----4-----------4---4-------------3-----------4-----4-----------------|
E|----------------------------------------------------------------------------------------------4-|

G|------------------------------------5-----5-----------------5-----5-----|
D|----------------------------------5-----------5-----------5-----------5-|
A|4-----4-----------4-----3-----3-----------------3-----3-----------------|
E|------------4---------4-------------------------------------------------|

G|------------------------------------------------------------------------------------------------|
D|3-----3-----------3-----------------6-----------3-----3-----------3-----------------6-----6-----|
A|------------3-----------4-----4-----------4-----------------3-----------4-----4-----------------|
E|------------------------------------------------------------------------------------------------|

G|------------------------------------5-----5-----------------5-----5-----|
D|----------------------------------5-----------5-----------5-----------5-|
A|4-----4-----------4-----3-----3-----------------3-----3-----------------|
E|------------4---------4-------------------------------------------------|

0:46

G|------------------------------------------------------------------------------------------------|
D|0-----3-----5-----7-----------------7-----5-----0-----3-----5-----7-----7-----------7-----5-----|
A|------------------------0-----4-----------------------------------------------4-----------------|
E|------------------------------------------------------------------------------------------------|

G|------------------------------------------------------------------------------------------------|
D|0-----3-----5-----7-----7-----------7-----5-----0-----3-----5-----7-----------------------------|
A|------------------------------4-----------------------------------------7-----7-----7-----7-----|
E|------------------------------------------------------------------------------------------------|

G|----------------------------------------------------------------------9-|
D|------------------------------------------------------------------------|
A|5-----5-----5-----5-----7-----------------------------------------------|
E|------------------------------------------------------------------------|

1:06

G|10----10----9-----9-----7-----7-----5-----5---7-8-----8-----6-----6-----5-----5-----3-----3---4-|
D|------------------------------------------------------------------------------------------------|
A|------------------------------------------------------------------------------------------------|
E|------------------------------------------------------------------------------------------------|

G|5-----5-----5-----5-----------------------5-----|
D|----------------------5-------------------------|
A|------------------------3-----3-----3---------3-|
E|------------------------------------------------|

1:16

G|------------------------------------------------------------------------------------------------|
D|3-----3-----------3-----------------6-----------3-----3-----------3-----------------6-----6-----|
A|------------3-----------4-----4-----------4-----------------3-----------4-----4-----------------|
E|----------------------------------------------------------------------------------------------4-|

G|------------------------------------5-----5-----------------5-----5-----|
D|----------------------------------5-----------5-----------5-------------|
A|4-----4-----------4-----3-----3-----------------3-----3-----------------|
E|------------4---------4-------------------------------------------------|

G|------------------------------------------------------------------------------------------------|
D|3-----3-----------3-----------------6-----------3-----3-----------3-----------------6-----6-----|
A|------------3-----------4-----4-----------4---4-------------3-----------4-----4-----------------|
E|----------------------------------------------------------------------------------------------4-|

G|------------------------------------5-----5-----------------5-----5-----|
D|----------------------------------5-----------5-----------5-----------5-|
A|4-----4-----------4-----3-----3-----------------3-----3-----------------|
E|------------4---------4-------------------------------------------------|

1:41

G|------------------------------------------------------------------------------------------------|
D|0-----3-----5-----7-----7-----------7-----5-----0-----3-----5-----7-----7-----------7-----5-----|
A|------------------------------4-----------------------------------------------4-----------------|
E|------------------------------------------------------------------------------------------------|

G|------------------------------------------------------------------------------------------------|
D|0-----3-----5-----7-----------------7-----5-----0-----3-----5-----7-----------------------------|
A|------------------------0-----4-----------------------------------------7-----7-----7-----7-----|
E|------------------------------------------------------------------------------------------------|

G|------------------------------------------------------------------------------------------------|
D|------------------------------------------------------------------------------------------------|
A|5-----5-----5-----5-----7-----------------------------------------------------------------------|
E|------------------------------------------------------------------------------------------------|

2:02

G|--------9-----------9-----------9-----------9-----------9-----------9-----------9-----------9---|
D|----9-----------9-----------9-----------9-----------9-----------9-----------9-----------9-------|
A|7-----------7-----------7-----------7-----------7-----------7-----------7-----------7-----------|
E|------------------------------------------------------------------------------------------------|

G|--------9-----------9-----------9-----------9-----------9-----------9---|
D|----9-----------9-----------9-----------9-----------9-----------9-------|
A|7-----------7-----------7-----------7-----------7-----------7-----------|
E|------------------------------------------------------------------------|

2:15

G|10----10----9-----9-----7-----7-----5-----5---7-8-----8-----6-----6-----5-----5-----3-----3---4-|
D|------------------------------------------------------------------------------------------------|
A|------------------------------------------------------------------------------------------------|
E|------------------------------------------------------------------------------------------------|

G|5-----5-----5-----5-----------------------5-----|
D|----------------------5-------------------------|
A|------------------------3-----3-----3-----------|
E|------------------------------------------------|

2:26

G|------------------------------------------------------------------------------------------------|
D|3-----3-----------3-----------------6-----------3-----3-----------3-----------------6-----------|
A|------------3-----------4-----4-----------4---4-------------3-----------4-----4-----------4-----|
E|------------------------------------------------------------------------------------------------|

G|------------------------------------------------------------5-----5-----------------5-----5-----|
D|3-----3-----------3-----------------6---------6-----------5-----------5-----------5-------------|
A|------------3-----------4-----4-----------4-----3-----3-----------------3-----3-----------------|
E|------------------------------------------------------------------------------------------------|

G|------------10----------------------------------------------10----------------------------------|
D|------10----------10----11----10----8-----6-----------10----------10----11----10----8-----6-----| x4  to
A|8-----------------------------------------------8-----------------------------------------------| fadeout.
E|------------------------------------------------------------------------------------------------|
Добавлено: 27.02.2016
Другие материалы по этой песне:
  • Аккорды и текст

Страница создана 09.06.2012
http://primanota.ru/monkees/all-of-your-toys-chords.htm
Привет, Гость.
Предлагаем пройти революционный курс по гитаре.
Подарок от PrimaNota.Ru, забирай!