PrimaNota.ru - самый крупный в мире бесплатный архив песенных текстов, аккордов, табулатур и нот


Monkees - A Man Without A Dream - текст песни, бас-таба, видео

Регистрация Запомнить меня
Войти через:  Facebook Google Twitter Vk Yandex Mail.ru

Monkees - A Man Without A Dream - текст песни, бас-таба, видео

Печатать
Просмотров: 66
Tabbed by: 6METAL6BASSIST6
E-mail: petergriffinav@gmail.com

Tuning: EADG

G|----------------------------------------------------------------|
D|----------------------------------------------------------------| x2
A|3-----------3-------------------1-------------------------------|
E|--------------------------------------------1-------------------|

0:13

G|----------------------------------------------------------------|
D|------------------------------/-5-------------------------------| x3
A|3-----------3-------------------------------3-------------------|
E|----------------------------------------------------------------|

G|----------------------------------------------------------------|
D|2-----------0-----------------/-5-------------------------------|
A|--------------------------------------------3-------------------|
E|----------------------------------------------------------------|

0:35

G|----------------------------------------------------------------|
D|--------------------------------5-----------5---5-------5---5---|
A|3-----------3-----------3---3-----------------------------------|
E|----------------------------------------------------------------|

G|----------------------------------------------------------------|
D|--------------------------------2-----------0-------0---5---5---|
A|3-----------3---------------3-----------------------------------|
E|----------------------------------------------------------------|

G|----------------------------------------------------------------|
D|--------------------------------0-----------0---------------0---|
A|3-----------3---------------3-----------------------------------|
E|----------------------------------------------------------------|

G|----------------------------------------------------------------|
D|2-----------0-------------------5-----------5-/-5-----/-5-------|
A|----------------------------------------------------------------|
E|----------------------------------------------------------------|

G|----------------------------------------------------------------|
D|----------------------------------------------------------------|
A|3-----------3-------------------1-------------------------------|
E|--------------------------------------------1-------------------|

1:00

G|----------------------------------------------------------------|
D|------------------------------/-5-------------------------------| x3
A|3-----------3-------------------------------3-------------------|
E|----------------------------------------------------------------|

G|----------------------------------------------------------------|
D|2-----------0-----------------/-5-------------------------------|
A|--------------------------------------------3-------------------|
E|----------------------------------------------------------------|

1:22

G|----------------------------------------------------------------|
D|--------------------------------5-----------5-----------5---5---|
A|3-----------3-----------3---3-----------------------------------|
E|----------------------------------------------------------------|

G|----------------------------------------------------------------|
D|--------------------------------2-----------0-------0---5---5---|
A|3-----------3---------------3-----------------------------------|
E|----------------------------------------------------------------|

G|----------------------------------------------------------------|
D|--------------------------------0-----------0---------------0---|
A|3-----------3---------------3-----------------------------------|
E|----------------------------------------------------------------|

G|----------------------------------------------------------------|
D|2-----------0-------------------5-----------5-/-5-----/-5-------|
A|----------------------------------------------------------------|
E|----------------------------------------------------------------|

G|----------------------------------------------------------------|
D|----------------------------------------------------------------|
A|3-----------3-------------------1-------------------------------|
E|--------------------------------------------1-------------------|

1:50

G|----------------------------------------------------------------|
D|------------3-------3-/-8-------------------6-------6---8-------|
A|3-------3-----------------------6-------6-----------------------|
E|----------------------------------------------------------------|

G|----------------------------------------------------------------|
D|------------6-------6---5---------------5-----------------------|
A|6-------6---------------------------5-------5-------------------|
E|------------------------------------------------3---------------|

2:02

G|----------------------------------------------------------------|
D|------------------------------/-5-------------------------------| x3
A|3-----------3-------------------------------3-------------------|
E|----------------------------------------------------------------|

G|----------------------------------------------------------------|
D|2-----------0-------------------5-----5-----5-------------------|
A|------------------------------------------------3---------------|
E|----------------------------------------------------------------|

2:23

G|----------------------------------------------------------------|
D|--------------------------------5-----------5-------5---5---5---|
A|3-----------3-----------3---3-----------------------------------|
E|----------------------------------------------------------------|

G|----------------------------------------------------------------|
D|--------------------------------2-----------0-------0---5---5---|
A|3-----------3---------------3-----------------------------------|
E|----------------------------------------------------------------|

G|----------------------------------------------------------------|
D|--------------------------------0-----------0---------------0---|
A|3-----------3---------------3-----------------------------------|
E|----------------------------------------------------------------|

G|----------------------------------------------/-12----/-12-\----|
D|2-----------0-------------------5-------------------------------|
A|----------------------------------------------------------------|
E|----------------------------------------------------------------|

G|----------------------------------------------------------------|
D|----------------------------------------------------------------|
A|--------------------------------1-------------------------------|
E|--------------------------------------------1-------------------|

G|----------------------------------------------------------------|
D|--------------------------------------------------------------/-|
A|3-----------3-------------------1-------------------------------|
E|--------------------------------------------1-------------------|

G|----------------------------------------------------------------|
D|10----------10------------------8-\---------3-------------------| fades out here.
A|----------------------------------------------------------------|
E|----------------------------------------------------------------|
Добавлено: 02.03.2016
Другие материалы по этой песне:
  • Аккорды и текст

Страница создана 15.06.2012
http://primanota.ru/monkees/a-man-without-a-dream-chords.htm
Привет, Гость.
Предлагаем пройти революционный курс по гитаре.
Подарок от PrimaNota.Ru, забирай!