PrimaNota.ru - самый крупный в мире бесплатный архив песенных текстов, аккордов, табулатур и нот


Monica Heldal - Boy From The North - таба, видео

Регистрация Запомнить меня
Войти через:  Facebook Google Twitter Vk Yandex Mail.ru

Monica Heldal - Boy From The North - таба, видео

Печатать
Просмотров: 62
Уроки эстрадного вокала в Санкт-Петербурге
Artist  : Monica Heldal
Song    : Boy From The North
Album   : Boy From The North

Tuning  : Half Step Down - Standard (EADGBe)

Capo    : None

Notes   : I don't claim this is 100% accurate or anything, but there
          were no tabs (that I could find) for this at all, so this
          should at least help people in the right direction. I
          learnt it from different acoustic versions (both of which
          are linked below) so the album version varies a little
          to this. Plus the album version is alot quicker to any
          of the live versions I've seen too.


Videos  : https://www.youtube.com/watch?v=pI3_3cjDwmw
          https://www.youtube.com/watch?v=GzEUSQpCT5Y


---------------
INTRO
---------------

    Dm
e|------1-------1-----------1---------------1----------|
B|----------------------3-----------3---------------3--|
G|------0h2---------2-----------2---------------2------|
D|--0-------0---------------0-----------0--------------|
A|-----------------------------------------------------| x2
E|-----------------------------------------------------|


        Em#D
e|------3-------3-----------3---------------3----------|
B|----------------------5-----------5---------------5--|
G|------4-----------4-----------4---------------4------|
D|--0-------0---------------0-----------0--------------|
A|-----------------------------------------------------| x2
E|-----------------------------------------------------|


    Dm                                                  Dm
e|------1-------1---------------------------1--------|------1-------1-----------1---------------1----------|
B|----------------------3-------------------3--------|----------------------3-----------3---------------3--|
G|------0h2---------2--------------------------------|------2-----------2-----------2---------------2------|
D|--0-------0-------------------0------(0)-----------|--0-------0---------------0-----------0--------------|
A|--------------------------0h3-----3-----------0h3--|-----------------------------------------------------|x2
E|---------------------------------------------------|-----------------------------------------------------|



---------------
VERSE
---------------

    Dm                                                    Fmaj7#9                 C
e|------1-------1-----------1---------------1----------|------0-------0-----------0---------------0----------|
B|----------------------3-----------3---------------3--|----------------------1-----------1---------------1--|
G|------2-----------2-----------2---------------2------|------0h2---------0-----------0---------------0------|
D|--0-------0---------------0-----------0--------------|--3-------3---------------2-----------2--------------|
A|-----------------------------------------------------|-----------------------------------------------------|
E|-----------------------------------------------------|-----------------------------------------------------|
        "Out from the woods..."

    Dm                                                  Dm
e|------1-------1---------------------------1--------|------1-------1-----------1---------------1----------|
B|----------------------3-------------------3--------|----------------------3-----------3---------------3--|
G|------0h2---------2--------------------------------|------2-----------2-----------2---------------2------|
D|--0-------0-------------------0------(0)-----------|--0-------0---------------0-----------0--------------|
A|--------------------------0h3-----3-----------0h3--|-----------------------------------------------------|
E|---------------------------------------------------|-----------------------------------------------------|
    "Making time..."

    G                                                     Dm
e|------3-------3-----------3---------------3----------|------1-------1-----------1---------------1----------|
B|----------------------3-----------3---------------3--|----------------------3-----------3---------------3--|
G|------0-----------0-----------0---------------0------|------2-----------2-----------2---------------2------|
D|-----------------------------------------------------|--0-------0---------------0-----------0--------------|
A|-----------------------------------------------------|-----------------------------------------------------|
E|--3-------3---------------3-----------3--------------|-----------------------------------------------------|
    "I looked around..."

    C                                                     G
e|------0-------0-----------0---------------0----------|------3-------3-----------3---------------3----------|
B|----------------------1-----------1---------------1--|----------------------3-----------3---------------3--|
G|------------------0-----------0---------------0------|------0-----------0-----------0---------------0------|
D|------0h2--------------------------------------------|-----------------------------------------------------|
A|--3-------3---------------3-----------3--------------|-----------------------------------------------------|
E|-----------------------------------------------------|--3-------3---------------3-----------3--------------|
    "Boy from the north..."

    G                       Fmaj9       C
e|------3-------3-----------0-----------0----------|
B|----------------------3-----------1-----------1--|
G|------0-----------0-----------2-----------0------|
D|--------------------------3-----------2----------|
A|-------------------------------------------------|
E|--3-------3--------------------------------------|
    "Cause your night..."


    Dm                                                  Dm
e|------1-------1---------------------------1--------|------1-------1-----------1---------------1----------|
B|----------------------3-------------------3--------|----------------------3-----------3---------------3--|
G|------0h2---------2--------------------------------|------2-----------2-----------2---------------2------|
D|--0-------0-------------------0------(0)-----------|--0-------0---------------0-----------0--------------|
A|--------------------------0h3-----3-----------0h3--|-----------------------------------------------------|
E|---------------------------------------------------|-----------------------------------------------------|


Repeat Verse



---------------
CHORUS
---------------

    F                       G                         Dm
e|------1-------1---------------3-------3----------|------1-------1-----------1---------------1----------|
B|----------------------1-----------------------1--|----------------------3-----------3---------------3--|
G|------2-----------2-----------0-----------2------|------0-----------2-----------2---------------2------|
D|--3-------3--------------------------------------|--0-------0---------------0-----------0--------------|
A|-------------------------------------------------|-----------------------------------------------------|
E|--------------------------3-------3--------------|-----------------------------------------------------|
    "I know you came..."

    C                       G                         Dm
e|------0-----------------------3-------3----------|------1-------1-----------1---------------1----------|
B|--------------1-------1-----------------------3--|----------------------3-----------3---------------3--|
G|------0-----------0-----------0-----------0------|------0-----------2-----------2---------------2------|
D|-------------------------------------------------|--0-------0---------------0-----------0--------------|
A|--3-------3--------------------------------------|-----------------------------------------------------|
E|--------------------------3-------3--------------|-----------------------------------------------------|
    "Started out..."

    F                       G                         Dm
e|------1-------1---------------3-------3----------|------1-------1-----------1---------------1----------|
B|----------------------1-----------------------1--|----------------------3-----------3---------------3--|
G|------2-----------2-----------0-----------2------|------0-----------2-----------2---------------2------|
D|--3-------3--------------------------------------|--0-------0---------------0-----------0--------------|
A|-------------------------------------------------|-----------------------------------------------------|
E|--------------------------3-------3--------------|-----------------------------------------------------|
    "You can find me..."

    C                                                     G
e|------0-------0-----------0---------------0----------|------3-------3-----------3---------------3----------|
B|----------------------1-----------1---------------1--|----------------------3-----------3---------------3--|
G|------------------0-----------0---------------0------|------0-----------0-----------0---------------0------|
D|------0h2--------------------------------------------|-----------------------------------------------------|
A|--3-------3---------------3-----------3--------------|-----------------------------------------------------|
E|-----------------------------------------------------|--3-------3---------------3-----------3--------------|
   "Hear me call..."

    G                       Fmaj9       C
e|------3-------3-----------0-----------0----------|
B|----------------------3-----------1-----------1--|
G|------0-----------0-----------2-----------0------|
D|--------------------------3-----------2----------|
A|-------------------------------------------------|
E|--3-------3--------------------------------------|
   "Oh..."

    Dm                                                  Dm
e|------1-------1---------------------------1--------|------1-------1-----------1---------------1----------|
B|----------------------3-------------------3--------|----------------------3-----------3---------------3--|
G|------0h2---------2--------------------------------|------2-----------2-----------2---------------2------|
D|--0-------0-------------------0------(0)-----------|--0-------0---------------0-----------0--------------|
A|--------------------------0h3-----3-----------0h3--|-----------------------------------------------------|
E|---------------------------------------------------|-----------------------------------------------------|


Repeat Chorus



---------------
INSTRUMENTAL
---------------

    D6sus2
e|------7-------7-----------7---------------7----------|
B|----------------------5-----------5---------------5--|
G|------7-----------7-----------7---------------7------|
D|--0-------0---------------0-----------0--------------|
A|-----------------------------------------------------| x2
E|-----------------------------------------------------|


    C6sus2#D
e|------5-------5-----------5---------------5----------|
B|----------------------3-----------3---------------3--|
G|------5-----------5-----------5---------------5------|
D|--0-------0---------------0-----------0--------------|
A|-----------------------------------------------------| x2
E|-----------------------------------------------------|


    Em#D
e|------3-------3-----------3---------------3----------|
B|----------------------5-----------5---------------5--|
G|------4-----------4-----------4---------------4------|
D|--0-------0---------------0-----------0--------------|
A|-----------------------------------------------------| x2
E|-----------------------------------------------------|


    C6sus2#D
e|------5-------5-----------5---------------5----------|
B|----------------------3-----------3---------------3--|
G|------5-----------5-----------5---------------5------|
D|--0-------0---------------0-----------0--------------|
A|-----------------------------------------------------| x2
E|-----------------------------------------------------|


    D6sus2
e|------7-------7-----------7---------------7----------|
B|----------------------5-----------5---------------5--|
G|------7-----------7-----------7---------------7------|
D|--0-------0---------------0-----------0--------------|
A|-----------------------------------------------------| x2
E|-----------------------------------------------------|


    D6sus2                                                D6sus2                  Fmaj9       C
e|------7-------7-----------5---------------7----------|------7-------7-----------0-----------0----------|
B|----------------------5-----------5---------------5--|----------------------5-----------1-----------1--|
G|------7-----------7-----------7---------------7------|------7-----------7-----------2-----------0------|
D|--0-------0---------------0-----------0--------------|--0-------0---------------3-----------2----------|
A|-----------------------------------------------------|-------------------------------------------------|
E|-----------------------------------------------------|-------------------------------------------------|


    Dm                                                  Dm
e|------1-------1---------------------------1--------|------1-------1-----------1---------------1----------|
B|----------------------3-------------------3--------|----------------------3-----------3---------------3--|
G|------0h2---------2--------------------------------|------2-----------2-----------2---------------2------|
D|--0-------0-------------------0------(0)-----------|--0-------0---------------0-----------0--------------|
A|--------------------------0h3-----3-----------0h3--|-----------------------------------------------------|
E|---------------------------------------------------|-----------------------------------------------------|



---------------
VERSE
---------------

        Repeat First Verse (only play once this time)



---------------
CHORUS
---------------

        Repeat First Chorus (only play once this time)



---------------
OUTRO
---------------

    Dm                                                  Dm
e|------1-------1---------------------------1--------|------1-------1-----------1---------------1----------|
B|----------------------3-------------------3--------|----------------------3-----------3---------------3--|
G|------0h2---------2--------------------------------|------2-----------2-----------2---------------2------|
D|--0-------0-------------------0------(0)-----------|--0-------0---------------0-----------0--------------|
A|--------------------------0h3-----3-----------0h3--|-----------------------------------------------------|x5
E|---------------------------------------------------|-----------------------------------------------------|


    Dm                                                  Dm
e|------1-------1---------------------------1--------|------1-------1-----------1~-------------------------|
B|----------------------3-------------------3--------|----------------------3---3~-------------------------|
G|------0h2---------2--------------------------------|------2-----------2-------2~-------------------------|
D|--0-------0-------------------0------(0)-----------|--0-------0---------------0~-------------------------|
A|--------------------------0h3-----3-----------0h3--|-----------------------------------------------------|
E|---------------------------------------------------|-----------------------------------------------------|
Добавлено: 08.04.2016
Другие материалы по этой песне:
  • Аккорды и текст

Страница создана 08.04.2016
http://primanota.ru/monica-heldal/boy-from-north-chords.htm
Привет, Гость.
Предлагаем пройти революционный курс по гитаре.
Подарок от PrimaNota.Ru, забирай!