PrimaNota.ru - самый крупный в мире бесплатный архив песенных текстов, аккордов, табулатур и нот


Moneen - There Are A Million Reasons - таба, видео

Регистрация Запомнить меня
Войти через:  Facebook Google Twitter Vk Yandex Mail.ru

Moneen - There Are A Million Reasons - таба, видео

Печатать
Просмотров: 97
Song: There Are a Million Reasons For Why This May Not Work... and One Good One For Why it Will
Artist: Moneen
Tabbed by: robobar

Tuning
Album Version: Standard
YouTube Acoustic Video: 1/2 Step Down


Main Riff
Guitar 1
|-------------|-------------|-------------|--------------|
|--33-33-33-3-|--33-33-33-3-|--33-33-33-3-|--33--33------|
|-4--4--4--4--|-2--2--2--2--|-------------|----------77--|
|-------------|-------------|-4--4--4--4--|-5--54--47--7-|
|-------------|-------------|-------------|--------------|
|-------------|-------------|-------------|--------------|

Guitar 2 (Starts on second bar)
|-------------|-------------|-------------|--------------|
|---7~-7~-7~--|---5~-5~-5~--|---2~-2~-2~--|---7-7--10-10-|
|-77--7--7----|-77--7--7----|-22--2--2----|-77-7-77--7---|
|-------------|-------------|-------------|--------------|
|-------------|-------------|-------------|--------------|
|-------------|-------------|-------------|--------------|


2:23 - “Build up”
|------------------------------|------------------------------|
|---2-2----2-2-----2-2----2-2--|---5-5----5-5-----5-5----5-5--|
|-22-2-2-22-2-2--22-2-2-22-2-2-|-77-7-7-77-7-7--77-7-7-77-7-7-|
|------------------------------|------------------------------|
|------------------------------|------------------------------|
|------------------------------|------------------------------|

|------------------------------|------------------------------|
|---7-7----7-7-----7-7----7-7--|---8-8----8-8-----8-8----8-8--|
|-77-7-7-77-7-7--77-7-7-77-7-7-|-77-7-7-77-7-7--77-7-7-77-7-7-|
|------------------------------|------------------------------|
|------------------------------|------------------------------|
|------------------------------|------------------------------|

|------------------------------|--------------------------------------|
|---5-5----5-5-----5-5----5-5--|---10-10----10-10-----10-10----10-10--|
|-77-7-7-77-7-7--77-7-7-77-7-7-|-77--7--7-77--7--7--77--7--7-77--7--7-|
|------------------------------|--------------------------------------|
|------------------------------|--------------------------------------|
|------------------------------|--------------------------------------|

2:54 - “Solo” (Play once with Ending 1, then with Ending 2)
                                        Ending 1
|-----------------|-----------------||------------------|
|-----------------|-----------------||------------------|
|-9h11p9-7h9p7-9~-|-9h11p9-7h9p7-6~-||-11~--6~--4~-/14~-|
|-----------------|-----------------||------------------|
|-----------------|-----------------||------------------|
|-----------------|-----------------||------------------|

Ending 2
|-------------------------------------------------------------|
|-------------------------------15-15-15-15-15-15-15-15-15-15-|
|-11-11-11-11-11-14-14-14-14-14-------------------------------|
|-------------------------------------------------------------|
|-------------------------------------------------------------|
|-------------------------------------------------------------|


Chorus - Any suggestions?


3:49 - Mini Solo at end  (Play each note about 4 times quickly)
|--------------------------------------|
|---15-14-------7-----14-15-14---------|
|-7-------14--97-9-14----------14-11-9-|
|--------------------------------------|
|--------------------------------------|
|--------------------------------------|


I know it's incomplete, so any help is much appreciated.  
 Thanks
Добавлено: 24.04.2012
Другие материалы по этой песне:
  • Аккорды и текст

Страница создана 24.04.2012
http://primanota.ru/moneen/there-are-a-million-reasons-chords.htm
Привет, Гость.
Предлагаем пройти революционный курс по гитаре.
Подарок от PrimaNota.Ru, забирай!