PrimaNota.ru - самый крупный в мире бесплатный архив песенных текстов, аккордов, табулатур и нот


Moneen - Sharks In Danger - текст песни, таба, видео

Регистрация Запомнить меня
Войти через:  Facebook Google Twitter Vk Yandex Mail.ru

Moneen - Sharks In Danger - текст песни, таба, видео

Печатать
Просмотров: 160
Уроки эстрадного вокала в Санкт-Петербурге
________________________________________________________________________
Moneen-Sharks in Danger

Version one:
(i'm totally open for any changes)

GTR 1= Rhythm Guitar---------|(eadgbe)
GTR 2= Lead Guitar-----------|(eadgbe)
-There are also lots of other loops, overdubs, and instruments, and the intro has 2 lead 
  playing over so I havn't botherd figuring them out.

GTR 1 (starts after 40 seconds)
e|-----------------------------------------------------------------------------------|
b|-----------------------------------------------------------------------------------|
g|-----------------------------------------------------------------------------------|
d|-----------------------------------------------------------------------------------|
a|8-----4-----1----------------------------------------------------------------------|
e|9-----5-----2-----2---22222222-PH=666666555555333333111111-(x4)--------------------|


GTR 1
e|---------------------------------------------------------------------------------|
b|---------------------------------------------------------------------------------|
g|---------------------------------------------------------------------------------|
d|---------------------------------------------------------------------------------|
a|-1-1-1---1-1-1---1-1-1---1-1-1---(x16)-------------------------------------------|
e|---------------------------------------------------------------------------------|

------------------------------------------------------------------------------------

GTR 1
e|-----------------------------------------------------------------------------------|
b|-----------------------------------------------------------------------------------|
g|-----------------------------------------------------------------------------------|
d|-----------------------------------------------------------------------------------|
a|-1-1-111-1-1-111-1-1-111-1-1-111--(x20)—1~-----------------------------------------|
e|-----------------------------------------------------------------------------------|


GTR 2
e|-------------------------------------------------------------------------|
b|8---8--89---9--910---10--1012---12--1210---10--109---9--912---12---------|
g|-------------------------------------------------------------------------|
d|--8--8----8--8-----8----8------8---8------8----8----8---8-----9-----9----|
a|-------------------------------------------------------------------------|
e|-------------------------------------------------------------------------|

e|---------------------------------------|
b|-1214---14--1414---14--14--------------|
g|---------------------------------------|
d|------9----9------9---9----------------|
a|---------------------------------------|
e|---------------------------------------|


GTR 2
e|--------------------------------------------------------------|
b|12121212121212121212121212121212------------------------------|
g|--------------------------------------------------------------|
d|----(just so you don't have to count, you hit “12” 16 times)--|
a|--------------------------------------------------------------|
e|--------------------------------------------------------------|

GTR 2
e|12121212121212121212121212121212---------------------------------------------------|
b|12121212121212121212121212121212---------------------------------------------------|
g|-----------------------------------------------------------------------------------|
d|-----------------------------------------------------------------------------------|
a|-----------------------------------------------------------------------------------|
e|-----------------------------------------------------------------------------------|

GTR 2
e|14141414141414141414141414141414~--------------------------------------------------|
b|12121212121212121212121212121212~--------------------------------------------------|
g|-----------------------------------------------------------------------------------|
d|-----------------------------------------------------------------------------------|
a|-----------------------------------------------------------------------------------|
e|-----------------------------------------------------------------------------------|

------------------------------------------------------------------------------------

GTR 1 and 2
e|---111#---111#---111#---111#--------------------------------------------------------|
b|---222#---222#---222#---222#--------------------------------------------------------|
g|----------------------------------------------------------------(x4)----------------|
d|------------------------------------------------------------------------------------|
a|-1-------1--------1--------1-------11111111111111111111-----------------------------|
e|------------------------------------22222222222222222222----------------------------|


GTR 1
e|-----------------------------------------------------------------------------------|
b|-----------------------------------------------------------------------------------|
g|-----------------------------------------------------------------------------------|
d|-----------------------------------------------------------------------------------|
a|4---4---4---4---1---1---1---1---4---4---4---4---1---1---1---1----------------------|
e|5---5---5---5---2---2---2---2---5---5---5---5---2---2---2---2----------------------|


GTR 1
e|-----------------------------------------------------------------------------------|
b|-----------------------------------------------------------------------------------|
g|-----------------------------------------------------------------------------------|
d|-----------------------------------------------------------------------------------|
a|-111111-333333-444444-888888-111111-333333-444444-666666----(x3)-------------------|
e|-----------------------------------------------------------------------------------|

________________________________________________________________________
GTR 1
e|---------------------------------------------------------------------------|
b|---------------------------------------------------------------------------|
g|---------------------------------------------------------------------------|
d|---------------------------------------------------------------------------|
a|1-------1-------(x13)(you hit “1” 26 times, slde to “22” and back to “1”)--|
e|---------------------------------------------------------------------------|


GTR 2
e|-----------------------------------------------------------------------------------|
b|11-7-11-7-7-8-9-11-9-8-7-13~------(x8)---------------------------------------------|
g|-----------------------------------------------------------------------------------|
d|-----------------------------------------------------------------------------------|
a|-----------------------------------------------------------------------------------|
e|-----------------------------------------------------------------------------------|
________________________________________________________________________


this is my legend:

#                        Palm mute
~                        wammy bar
PM=                  hold palm constantly on the strings
Добавлено: 07.06.2012
Другие материалы по этой песне:
  • Аккорды и текст

Страница создана 22.03.2012
http://primanota.ru/moneen/sharks-in-danger-chords.htm
Привет, Гость.
Предлагаем пройти революционный курс по гитаре.
Подарок от PrimaNota.Ru, забирай!