PrimaNota.ru - самый крупный в мире бесплатный архив песенных текстов, аккордов, табулатур и нот


Moneen - Are We Really Happy With Who We Are Right Now - текст песни, бас-таба, видео

Регистрация Запомнить меня
Войти через:  Facebook Google Twitter Vk Yandex Mail.ru

Moneen - Are We Really Happy With Who We Are Right Now - текст песни, бас-таба, видео

Печатать
Просмотров: 110
Moneen - Are We Really Happy With Who We Are Right Now
Tuning: Standard (E A D G)


G-------------------------------|
D-------------------------------|
A-------------------------------|
E-7-7----00000000-7-7-7-7-77777-|

Verse:x2
G------------------------------------|
D------------------------------------|
A-6666666666666666-77777777----------|
E---------------------------77777777-|

G-------------------------------|
D-------------------------------|
A-6666666666666666-77777777-----|
E---------------------------7-7-|

G----------------------------|
D----------------------------|
A-6666666666666666-7777------|
E-----------------------7777-|

Chorus:x3
G------------------|       G-----------------------------|
D------------------|       D-----------------------------|
A------------------|       A-----------------------------|
E-4-4-444--7-7-777-|       E-0--0--0--0--0-0-0-0-0-0-0-0-|

Break
G------------------------------------|
D------------------------------------|
A-6666666666666666-77777777----------|
E---------------------------77777777-|


G--------------------------------------------|
D--------------------------------------------|
A-6666666666666666-77777777------------------|
E---------------------------7777-Short-Pause-|


G--------------------|
D--------------------| 
A-6666~--------------|
E----------000~-777~-|

Verse:x3
G------------------------------------|
D------------------------------------| 
A-6666666666666666-77777777----------|
E---------------------------77777777-|

G------------------------|
D------------------------|
A-6666-pause---777~------|
E-------------------777~-|

Chorus:x3                 Chorus Continues: x4
G------------------|     G-----------------------------|
D------------------|     D-----------------------------| 
A------------------|     A-----------------------------|
E-4-4-444--7-7-777-|     E-0--0--0--0--0-0-0-0-0-0-0-0-|

Interlude:x2
G-------------------------------------------------------|
D-------------------------------------------------------|
A-------------------22-2222--------------------22-11----|
E-44-4--2-2--00-00-----------44-4--2-2--00-00--------22-|

x2
G----------------------------------------|    G---------|
D----------------------------------------|    D---------|
A---------------------77-7-7-7--66-6-6-6-|    A---------|
E-44-4-4-4--77-7-7-7---------------------|    E-4--7--7-|


G----------------------------------|
D----------------------------------|
A-6-7~--7-6—6-7~--7-6-6-7------7—6-|
E-------------------------4—7------|

Outro:x9
G-----------------|
D-----------------| 
A---------------2-|
E-24244—222--00---|
Добавлено: 18.04.2012
Другие материалы по этой песне:

Страница создана 04.04.2012
http://primanota.ru/moneen/are-we-really-happy-with-who-we-are-right-now-chords.htm
Привет, Гость.
Предлагаем пройти революционный курс по гитаре.
Подарок от PrimaNota.Ru, забирай!