PrimaNota.ru - самый крупный в мире бесплатный архив песенных текстов, аккордов, табулатур и нот


Monchy Y Alexandra - Hoja En Blanco - аккорды и текст, видео

Регистрация Запомнить меня
Войти через:  Facebook Google Twitter Vk Yandex Mail.ru

Monchy Y Alexandra - Hoja En Blanco - аккорды и текст, видео

Печатать
Просмотров: 95
Hoja En Blanco
Monchy Y Alexandra
Song: Hoja En Blanco
Track: 1
Artist: Monchy Y Alexandra
Album: Hoja En Blanco
Artist Website: http://www.monchyyalexandra.com/
Tabbed by: Roberto Aleman
Email: Roberto0331@gmail.com

Tuning: Standard (EADGBe)

Notes: Relatively simple song if you know how to play. Nothing special to it really 
than speed. Listen to the song to gather a sense of timing.

INTRO
e|-----------12-13-12-13--|--13-12----------------12----12--|
B|-----15-15--------------|--------15-13-13-13-15----15-----|
G|--14--------------------|---------------------------------|
D|------------------------|---------------------------------|
A|------------------------|---------------------------------|
E|------------------------|---------------------------------|

e|--12-12----15-----------------------|--13-12----17--------------------|
B|--------15-13-15-15-13-15-13-11-11--|--------15----17-15-17-15-13-13--|
G|------------------------------------|---------------------------------|
D|------------------------------------|---------------------------------|
A|------------------------------------|---------------------------------|
E|------------------------------------|---------------------------------|

e|-----13----13----------13--|--12----12----------12--------- \
B|--------15----15----15-----|-----13----13----13-----|------ \
G|--14-------------14--------|--------------12--------| ----- \
D|---------------------------|------------------------|  ---- \
A|---------------------------|------------------------|   --- \
E|---------------------------|------------------------|    -- \
                                                             Repeat
e|--10----10----------10--|--8----8----------8-------------- \     /
B|-----11----11----11-----|----10---10----10---------------- \    /
G|--------------10--------|------------10------------------- \   /
D|------------------------|--------------------------------- \  /
A|------------------------|--------------------------------- \ /
E|------------------------|--------------------------------- \

VERSE
D-                                      C
Fue imposible sacar tu recuerdo de mi mente.
        Bb                                  C
Fue imposible olvidar que algun dia yo te quise.
D-                                      C
Tanto tiempo paso desde el dia que te fuiste.
        Bb                                C
Alli supe que las despedidas son muy triztes.

             D-
Nunca me imagine que un tren se llevaria en su viaje,
C
aquellas ilusionesque de niños zuzuramos.
Bb
Todos tus sentimientos los guardeste en tu equipaje,
F
quisiste consolarme, y me dijiste yo te amo.

             D-
Desde entonces no supe que seria de tu vida.
C
Desde entonces no supe si algun dia regresavas,
Bb
los amigos del pueblo preguntaron si volvias.
F
Llorando di la espalda no les pude decir nada.

D-
Ayer que regrece ami pueblo,
             C
alguien me dijo que ya te casaste.
          Bb
Mirame y dime si ya me olvidaste.
          C
Me marchare con los ojos aguados.

D-
Despues le preguntea la luna,
             C
me dio la espalda e intento ocultarse.
          Bb
Hasta la luna sabe que me amaste,
           C
hasta la luna sabe que aun me amas.


CHORUS
D-                 C
Y vuela vuela por otro rumbo,
             Bb            F
ve y sueña sueña que el mundo estuyo.
D-                 C
Tu ya no puedes volar conmigo,
    Bb                F
aunque mis sueños se iran contigo.
D-                 C
Tu ya no puedes volar conmigo,
    Bb                F
aunque mis sueños se iran contigo.


SOLO
e|--5-5-5-3-3-3--|--3-6-6-5-5-5--|--5-6-8-8-7-7-7--|
B|---------------|---------------|-----------------|
G|---------------|---------------|-----------------|
D|---------------|---------------|-----------------|
A|---------------|---------------|-----------------|
E|---------------|---------------|-----------------|

e|--5-5-5-3-3-3--|--3-6-6-5-5-5--|--5-6-8-8-7-7-7-7-10-13-12-13-12--|
B|---------------|---------------|----------------------------------|
G|---------------|---------------|----------------------------------|
D|---------------|---------------|----------------------------------|
A|---------------|---------------|----------------------------------|
E|---------------|---------------|----------------------------------|

e|--10-9-10-12-13-15--|--13--|
B|--------------------|--15--|
G|--------------------|--14--|
D|--------------------|------|
A|--------------------|------|
E|--------------------|------|

e|--5-5-5-3-3-3-3-3-5-6-6-5-5-5-5-5-6-8-8-7-7-7-7-10-13-12-13-12--|===|
B|----------------------------------------------------------------|   |
G|----------------------------------------------------------------|   |
D|----------------------------------------------------------------|   |
A|----------------------------------------------------------------|   |
E|----------------------------------------------------------------|   |
                                                                      |
                                                                Continuous
                                                                Picking
                                                                      |
e|--10-9-10-12-13-15-13-12-10-12-10----10-------------------|         |
B|----------------------------------13----13-11-10----------|         |
G|-------------------------------------------------12-9-10--|         |
D|----------------------------------------------------------|         |
A|----------------------------------------------------------|         |
E|----------------------------------------------------------|=========|

e|--10--|--13--|
B|--10--|--15--|
G|--10--|--14--|
D|------|------|
A|------|------|
E|------|------|

e|--8---8---8-12---8----|--10----10----10-13----10----10---8---8--|
B|----8---8------8---8--|-----10----10-------10----10----8---8----|
G|----------------------|-----------------------------------------|
D|----------------------|-----------------------------------------|
A|----------------------|-----------------------------------------|
E|----------------------|-----------------------------------------|

e|--10---8---8-13----10----10-13----10----10--|
B|-----8---8------10----10-------10----10-----|
G|--------------------------------------------|
D|--------------------------------------------|
A|--------------------------------------------|
E|--------------------------------------------|


VERSE TO END OF SONG
From here on in, the rest of the song is played in
D-
until the end of the song. To gain a sense of how to play it LISTEN TO THE SONG.
Добавлено: 26.03.2012
Другие материалы по этой песне:
  • Аккорды и текст

Страница создана 26.03.2012
http://primanota.ru/monchy-y-alexandra/hoja-en-blanco-chords.htm
Привет, Гость.
Предлагаем пройти революционный курс по гитаре.
Подарок от PrimaNota.Ru, забирай!