PrimaNota.ru - самый крупный в мире бесплатный архив песенных текстов, аккордов, табулатур и нот


Monarch - Sabbat Noir Ii - таба, видео

Регистрация Запомнить меня
Войти через:  Facebook Google Twitter Vk Yandex Mail.ru

Monarch - Sabbat Noir Ii - таба, видео

Печатать
Просмотров: 72
Monarch! are a drone/funeral doom band. Their website is 
http://www.myspace.com/monarchuberalles

This song is played in drop A tuning. Monarch! use sustain pedals a lot and you're 
ideally looking for as sludgy a sound as possible.

Intro 
    1   2   3   4
B |---------------|
F#|---------------|
D |--------------o|
A |-0------------o|
E |-0-------------|
A |-0-------------|

2:00
    1   2   3   4   1   2   3   4  
B |-------------------------------|
F#|-------------------------------|
D |-------------------------------|
A |-0---3-----------3-------------|
E |-0---3-----------3-------------|
A |-0---3-----------3-------------|
   

Riff A
    1   2   3   4   1   2   3   4   1   2   3   4   1   2   3   4 
B |---------------------------------------------------------------|
F#|---------------------------------------------------------------|
D |---------------------------------------------------------------|
A |-0---------------0---------------0---3-----------3-------------|
E |-0---------------0---------------0---3-----------3-------------|
A |-0---------------0---------------0---3-----------3-------------|


Riff B (3:45)
    1   2   3   4   1   2   3   4  
B |-------------------------------|
F#|-------------------------------|
D |-------------------------------|
A |-0---3---0-------8-------7-----|
E |-0---3---0-------8-------7-----|
A |-0---3---0-------8-------7-----|


Riff C - Guitar 1(4:40)
    1   2   3   4   1   2   3   4  
B |-------------------------------|
F#|-------------------------------|
D |-------------------------------|
A |-0---3---0-------8-------7-----|
E |-0---3---0-------8-------7-----|
A |-0---3---0-------8-------7-----|


Riff C - Guitar 2
    1   2   3   4   1   2 + 3 + 4 +
B |---------------------------------|
F#|---------------------------------|
D |---------------------------------|
A |-0---3---0-----------3-----3-2---|
E |-0---3---0-------1-----5-4-----4-|
A |-0---3---0-----------------------|


Riff D - Guitar 1 (6:15)
    1   2   3 + 4   1   2   3   4 
B |--------------------------------|
F#|--------------------------------|
D |-8-----------8------------------|
A |-8---1-----1/8--0---------------|
E |-6---1-----1/6--0---------------|
A |-----1-----1----0---------------|

Riff D - Guitar 2
   1   2   3 + 4   1 + 2 + 3 + 4 +  
B |--------------------------------|
F#|--------------------------------|
D |-8-----------8------------------|
A |-8---1-----1/8--3---5-2-3---5-2-|
E |-6---1-----1/6------------------|
A |-----1-----1--------------------|


Return to Riff C (6:45)


Return to Riff D (7:35)


(10:00)
B |---------------------------------|--------------------------------------|
F#|---------------------------------|--------------------------------------|
D |o-------------------------------o|--------------------------------------|
A |o-0-----------------------------o|--------------------------------------|
E |--0------------------------------|--SKREEEEEEEEEEEEEEEEE----------------|
B |--0------------------------------|--------------------------------------|

Riff E (11:05)
    1   2   3   4  (timing becomes loose here) 
B |---------------------------------------------------------------|
F#|---------------------------------------------------------------|
D |---------------------------------------------------------------|
A |-0---3---3---2--(2)-------------(2)-------------8--------------|
E |-0---3---3---2----------------------------------8--------------|
B |-0---3---3---2----------------------------------8--------------|

Riff E continued (11:45)
    1   2   3   4   1   2   3   4   1   2   3   4   1   2   3   4   1
B |---------------------------------------------------------------------|
F#|---------------------------------------------------------------------|
D |-----------------7---7---6-------------------------------------------|
A |(8)----------0---7---7---6---------------------------------------0---|
E |(8)----------1---5---5---4---------------------------------------0---|
A |(8)----------0---0---0---0---------------------------------------0---|

Return to Riff E (12:25)

They then mix between an A5 and an A#5, before ending.
Добавлено: 21.06.2013
Другие материалы по этой песне:
  • Аккорды и текст

Страница создана 12.06.2013
http://primanota.ru/monarch/sabbat-noir-ii-chords.htm
Привет, Гость.
Предлагаем пройти революционный курс по гитаре.
Подарок от PrimaNota.Ru, забирай!