PrimaNota.ru - самый крупный в мире бесплатный архив песенных текстов, аккордов, табулатур и нот


Moms Cake - Bote Ka Pa - таба, видео

Регистрация Запомнить меня
Войти через:  Facebook Google Twitter Vk Yandex Mail.ru

Moms Cake - Bote Ka Pa - таба, видео

Печатать
Просмотров: 83
Title  : Bote ka pa
Artist : Moms Cake
Tab by :Don Joshua Lazaro
Email  :klashdsakj@yahoo.com
Intro:

Guitar 1
|--------------------------------------------------------------------------------|
|----------77h8--7h8--77h8--7h8--77h8--7h8--10-8-7-7h8---------------------------|
|----------77----7----77----7----77----7-----------------------------------------|;X2
|--------------------------------------------------------------------------------|
|--------------------------------------------------------------------------------|
|--------------------------------------------------------------------------------|

Guitar 2:w/ Distortion 

|--------------------------------------------------------------------------------|
|-----------77h8-7h8--77h8-7h8--77h8-7h8--10-8-7-7h8-----------------------------|
|--------------------------------------------------------------------------------|
|--------------------------------------------------------------------------------|
|--------------------------------------------------------------------------------|
|--------------------------------------------------------------------------------|

|--------------------------------------------------------------------------------|
|-----------77h8-7h8--77h8-7h8--77h8-7h8--10-8-77-8s10---------------------------|
|------------------------------------------------------7-------------------------|
|--------------------------------------------------------------------------------|
|--------------------------------------------------------------------------------|
|--------------------------------------------------------------------------------|

Chords
Intro:      G-Em-C-D  ;x2
Verse:      G-Em-C-D
Pre-Chorus: C-D  ;x2
Chorus:     G-Em-C-D

Guitar 2:w/ Distortion 
|--------------------------------------------------------------------------------|
|-----------77h8-7h8--77h8-7h8--77h8-7h8--10-8-77-8------------------------------|
|--------------------------------------------------------------------------------|
|--------------------------------------------------------------------------------|
|--------------------------------------------------------------------------------|
|--------------------------------------------------------------------------------|

|--------------------------------------------------------------------------------|
|-----------77h8-7h8--77h8-7h8--77h8-7h8--10-8-77-8s10---------------------------|
|------------------------------------------------------7-------------------------|
|--------------------------------------------------------------------------------|
|--------------------------------------------------------------------------------|
|--------------------------------------------------------------------------------|


Verse:      G-Em-C-D
Pre-Chorus: C-D ;x2
Chorus:     G-Em-C-D
Outro:      G-Em-C-D
Добавлено: 16.12.2015
Вам также может быть интересно:
Другие материалы по этой песне:
  • Аккорды и текст

Страница создана 16.12.2015
http://primanota.ru/moms-cake/bote-ka-pa-chords.htm
Привет, Гость.
Предлагаем пройти революционный курс по гитаре.
Подарок от PrimaNota.Ru, забирай!