PrimaNota.ru - самый крупный в мире бесплатный архив песенных текстов, аккордов, табулатур и нот


Moments - The Effort - бас-таба, видео

Регистрация Запомнить меня
Войти через:  Facebook Google Twitter Vk Yandex Mail.ru

Moments - The Effort - бас-таба, видео

Печатать
Просмотров: 62
-------------------------------------------------------------------------------
                             SONG NAME - Band Name
-------------------------------------------------------------------------------
Tabbed by: 
E-mail: 

Tuning: Half Step Down Standard/Drop C# | C# G# C# F#

Intro:
F#|---------------------------------------------------------------------------|
C#|---------------------------------------------------------------------------|
G#|--------5---7-----------5---7-----------5555--7-----------55557777---------|
C#|4---------------4---------------44444444----7--7\644444444-----------------|

Verse 1:
F#|----------------------------------------------------|
C#|--------------------7\6-----------------------7\6---|
G#|99-9-9--9955-5-7--7----7\599-9-9--9955-5-7--7----7\5| Repeat 1x 
C#|----------------------------------------------------|

Interlude:
F#|----------------------------------------------|
C#|9--11--9---11--7-------9--11--9---11--7-------|
G#|7--9---7---9---5-------7--9---7---9---5-------| 
C#|----------------------------------------------|

Verse 2:
F#|----------------------------------------------------|
C#|--------------------7\6p-----------------------7\6p-|
G#|99-9-9--9955-5-7--7----7\599-9-9--9955-5-7--7----7\5| Repeat 1x 
C#|----------------------------------------------------|

Interlude:
F#|----------------------------------------------|
C#|9--11--9---11--7-------9--11--9---11--7-------|
G#|7--9---7---9---5-------7--9---7---9---5-------| 
C#|----------------------------------------------|

Bridge 1:
F#|----------------------------------------------|
C#|9--11--9--11---777777779--11--9---11--77777777|
G#|7--9---7--9----555555557--9---7---9---55555555| 
C#|----------------------------------------------|

Chorus:
F#|----------------------------------------------------------------|
C#|----------------------------------------------------------------|
G#|----------------------------------------------------------------|
C#|4-4-4-0-0-0-0-0-7-7-7-2-2-2-2-2-4-4-4-0-0-0-0-0-7-7-7-2-2-2-2-x-|

F#|----------------------------------------------------------------|
C#|----------------------------------------------------------------|
G#|----------------------------------------------------------------|
C#|4-4-4-0-0-0-0-0-7-7-7-2-2-2-2-2-4-4-4-0-0-0-0-0-7-7-7-2-2-2-2-2-|

Bridge 2:
F#|-----------------------------------------------------------------|
C#|-----------------------------------------------------------------|
G#|----------------5-5-5-5----77--------------------5-5-5-5----77---| Repeat 1x
C#|4-4-4-4-4-4-4-4---------7-7--7/6-4-4-4-4-4-4-4-4---------7-7--7/6|

Outro:
F#|----------------------------------------------------------|
C#|----------------------------------------------------------|
G#|----------------------------------------------------------|
C#|2--4----2--4----0-0-0-0-0-0-0-0-2--4----2--4----00-00-0---|

F#|---------------------------------------------------------------------------|
C#|---------------------------------------------------------------------------|
G#|---------------------------------------------------------------------------|
C#|---------------------------------------------------------------------------|

| /  slide up
| \  slide down
| h  hammer-on
| p  pull-off
| ~  vibrato
| +  harmonic
| x  Mute note
===============================================================================
Добавлено: 25.06.2016
Другие материалы по этой песне:
  • Аккорды и текст

Страница создана 25.06.2016
http://primanota.ru/moments/effort-chords.htm
Привет, Гость.
Предлагаем пройти революционный курс по гитаре.
Подарок от PrimaNota.Ru, забирай!