PrimaNota.ru - самый крупный в мире бесплатный архив песенных текстов, аккордов, табулатур и нот


Molotov - Parásito - текст песни, таба, бас-таба, драм-таба, видео

Регистрация Запомнить меня
Войти через:  Facebook Google Twitter Vk Yandex Mail.ru

Molotov - Parásito - текст песни, таба, бас-таба, драм-таба, видео

Печатать
Просмотров: 181
ESTROFAS


         Subieron la mota,   tambien el alcohol [niño]
e |-----------------------------------------------------|
B |-----------------------------------------------------|
G |-----------------------------------------------------|
D |----4-------------------4----------------------------| x3
A |----4-------------------4----------------------------|
E |----2-------------------2----------------------------|


   y ahora es mas caro ponerse un pason
e |-----------------------------------------------------|
B |-----------------------------------------------------|
G |-----------------------------------------------------|
D |----4------------------------------------------------|
A |----4------------------------------------------------|
E |----2------------------------------------------------|


  va con Distorsion, Wah-Wah y Reverv
       - - + +  - - +       - - + +  - - +
e |----x-x-x-x--x-x-x-------x-x-x-x--x-x-x--------------|
B |----x-x-x-x--x-x-x-------x-x-x-x--x-x-x--------------|
G |----x-x-x-x--x-x-x-------x-x-x-x--x-x-x--------------|
D |----x-x-x-x--x-x-x-------x-x-x-x--x-x-x--------------|
A |----x-x-x-x--x-x-x-------x-x-x-x--x-x-x--------------|
E |----x-x-x-x--x-x-x-------x-x-x-x--x-x-x--------------| 


Que le pasa muchacho sigue borracho......


Entra la guitarra:

   va con Distorsion y Wah-Wah.
    Su vieja me dijo ....
e |-----------------------------------------------------|
B |-----------------------------------------------------|
G |-----------------------------------------------------|
D |--4--2-------0------4--2-----------------------------|
A |-------4--2--0-----------4--2------------------------|
E |----------------2--------------2---------------------|

 
 CORO:

    Hey Ya Ya Tranquilo man.
e |-----------------------------------------------------|
B |-----------------------------------------------------|
G |-----------------------------------------------------|
D |---------6-/-9-9-9-------6-/-9-9-9-------------------|
A |----4----4-/-7-7-7--4----4-/-7-7-7-------------------|
E |----2---------------2--------------------------------|

Entra la guitarra:

    va con Distorsion y Wah-Wah.
    Oigame mi compa...                1/2 up
e |-----------------------------------------------------|
B |-----------------------------------------------------|
G |-----------------------------------4-----------------|
D |--4--2-------0-------------4---2-4-------------------|
A |-------4--2--0-----0---------4-----------------------|
E |------------------2-0--------------------------------|


 CORO:

    Hey Ya Ya Tranquilo man.
e |-----------------------------------------------------|
B |-----------------------------------------------------|
G |-----------------------------------------------------|
D |---------6-/-9-9-9-------6-/-9-9-9-------------------|
A |----4----4-/-7-7-7--4----4-/-7-7-7-------------------|
E |----2---------------2--------------------------------|


Dicen que por las noches 
nomas se le hiba en puro chupar       va con Distorsion y Wah-Wah
                        e |---------|
                        B |---------|
                        G |---------|
                        D |--2---4--|
                        A |---------|
                        E |---------|    

Dicen que no dormia 
nomas fumaba para aguantar            va con Distorsion y Wah-Wah
                        e |---------|
                        B |---------|
                        G |---------|
                        D |--4------|
                        A |-----2---|
                        E |-------2-|   

 CORO:

    Hey Ya Ya Tranquilo man.             
e |-----------------------------------------------------|
B |-----------------------------------------------------|
G |-----------------------------------------------------|
D |---------6-/-9-9-9-------6-/-9-9-9-------------------|
A |----4----4-/-7-7-7--4----4-/-7-7-7-------------------|
E |----2---------------2--------------------------------|


Parte lenta:

 CORO:
    P.M.= apagar el sonido de las cuerdas con la mano.
    Hey Ya Ya Tranquilo man. Hey Ya Ya Tranquilo man.
     |---P.M.----|            |---P.M.----| 
e |-----------------------------------------------------|
B |-----------------------------------------------------|
G |---4-4-4-4-2-4--------------4-4-4-4-2-4--------------| x2
D |-----------------------------------------------------|
A |-----------------------------------------------------|
E |-----------------------------------------------------|


 CORO:

    Hey Ya Ya Tranquilo man.
e |-----------------------------------------------------|
B |-----------------------------------------------------|
G |-----------------------------------------------------|
D |---------6-/-9-9-9-------6-/-9-9-9-------------------|
A |----4----4-/-7-7-7--4----4-/-7-7-7-------------------|
E |----2---------------2--------------------------------|


Du - da da du - da da du - da da du 
Da da du - da da du - da da du - da da du.

Pinche huevon. (reduciendo la velocidad de la voz).


Trancripcion de Gustavo Venturi R.
Cualquier pregunta o correcion por favor escribir a:
gustavoventuri@
Добавлено: 28.11.2014
Другие материалы по этой песне:
  • Аккорды и текст

Страница создана 19.10.2013
http://primanota.ru/molotov/parasito-chords.htm
Привет, Гость.
Предлагаем пройти революционный курс по гитаре.
Подарок от PrimaNota.Ru, забирай!