PrimaNota.ru - самый крупный в мире бесплатный архив песенных текстов, аккордов, табулатур и нот


Molly Jenson - Do You Only Love The Ones Who Look Like You - таба, видео

Регистрация Запомнить меня
Войти через:  Facebook Google Twitter Vk Yandex Mail.ru

Molly Jenson - Do You Only Love The Ones Who Look Like You - таба, видео

Печатать
Просмотров: 122
Уроки эстрадного вокала в Санкт-Петербурге
Well this is only the intro, 1st verse, and chorus, but the 2nd verse and 2nd
chorus are the same. So here!

Intro:
E|-----8------1-----8---------1-----------|
B|-----8------1-----8---------1-----------|
G|-----9------2-----9---------2-----------|
D|-----10-----3-----10--------3-----------|
A|-----10-----3-----10--------3-----------|
E|--8--8---1--1--8--8---8--1--1--3--5--8--|

Verse 1:
E|--8------1--------8-------1--------8---------5------------------------|
B|--8------1--------8-------1--------8---------6------------------------|
G|--9------2--------9-------2--------9---------7------------------------|
D|--10-----3--------10------3--------10--------7------------------------|
A|--10-----3--------10------3--------10--------5------------------------|
E|--8---1--1--3--8--8----1--1--3--8--8---1--0-----3--3--3--3--5--7--8---|


E|--8------1-----------8------------1-----8---------5--3--5--5--------|
B|--8------1-----------8------------1-----8---------6--3--6--6--------|
G|--9------2-----------9------------2-----9---------7--4--7--7--------|
D|--10-----3-----------10-----------3-----10--------7--5--7--7--------|
A|--10-----3-----------10-----------3-----10--------5--5--5--5--------|
E|--8---1--1--1--3--8--8---8--8--1--1--8--8---1--0-----3--------3--3--|

Chorus:
E|--0---------1-------------0--------1------------0--------1--5--5--5--5--3-|
B|--0---------1-------------0--------1------------0--------1--6--6--6--6--3-|
G|--0---------2-------------0--------2------------0--------2--7--7--7--7--4-|
D|--2---------3-------------2--------3------------2--------3--7--7--7--7--5-|
A|--2---------3-------------2--------3------------2--------3--5--5--5--5--5-|
E|--0---------1-------------0--------1------------0--------1--------------3-|

E|-3--3--3---5------3------------8---|
B|-3--3--3---6------3------------8---|
G|-4--4--4---7------4------------9---|
D|-5--5--5---7------5------------10--|
A|-5--5--5---5------5------------10--|
E|-3--3--3----------3--3--5--7—8-8---|
Добавлено: 30.04.2012
Вам также может быть интересно:
Другие материалы по этой песне:
  • Аккорды и текст

Страница создана 30.04.2012
http://primanota.ru/molly-jenson/do-you-only-love-the-ones-who-look-like-you-chords.htm
Привет, Гость.
Предлагаем пройти революционный курс по гитаре.
Подарок от PrimaNota.Ru, забирай!