PrimaNota.ru - самый крупный в мире бесплатный архив песенных текстов, аккордов, табулатур и нот


Molino - Romanza - таба, видео

Регистрация Запомнить меня
Войти через:  Facebook Google Twitter Vk Yandex Mail.ru

Molino - Romanza - таба, видео

Печатать
Просмотров: 69
Romanza - Molino (1775 - 1847)

Transcripto por Ariel M. Bellio sisisisol@yahoo.com.ar


Andante Amoroso

6/8

e-||---0-----------0-----|-----------------0--|--1-----1--0-----0--|
B-||------------3-----3--|--1-----------3-----|--------------------|
G-||*--------0-----------|--------0-----------|--------0--------0--|
D-||*-----2--------------|-----2--------------|-----0--------2-----|
A-||---3--------2--------|--3--------3--------|--2--------3--------|
E-||---------------------|--------------------|--------------------|
       p

e-|----------------------|--0-----------0-----|--------------------|
B-|---3-----0-----1--3---|-----------3-----3--|--1-----------0--1--|
G-|---------0------------|--------0-----------|--------2--2--------|
D-|------0-----0---------|-----2--------------|-----2--------------|
A-|---2------------------|--3--------2--------|--0-----------------|
E-|------------3---------|--------------------|-----------2--------|


e-|------0---------/\----|-------------------||---------------0--1-|
B-|---0-----3-----1--0---|--------0----------||---3--------3-------|
G-|------------2---------|--0--0------------*||*-----0--0----------|
D-|------------0---------|--------0--0------*||*--3--------3-------|
A-|----------------------|-----2-------------||--------------------|
E-|---3------------------|--3--------3-------||--------------------|
      f                                           dolcissimo

e-|--3----0--------------|--------------0--1--|--3-----0-----------|
B-|---------(3)-1--0--1--|--3-----3--3--------|-----------1--------|
G-|----0--0--------------|-----0--0-----------|-----0--0-----0-----|
D-|--2----------2--------|--3--------3--------|--2--------2--------|
A-|----------------------|--------------------|--------------------|
E-|----------------------|--------------------|--------------------|

                                                           /\
e-|----0-----------0-----|--------------------|--------0--3--1-----|
B-|-------------3-----3--|-1------(3)-1--0----|-----1-----0-----3--|
G-|----------0-----------|------2-----------2-|--0--------0--------|
D-|-------2--------------|---2--------3-------|--------------------|
A-|----3--------2--------|-0------------------|--------------------|
E-|----------------------|--------------------|--------------------|

  ________               ________
  |1.                    |2.                         /\
e-|--------0------------||--------------0-----|-----3--0-----------|
B-|--1--1-----1---------||--1--------3-----3--|--1--------3-----0--|
G-|--------0-----------*||--------0-----------|--------------2-----|
D-|-----2--------------*||-----2-----3--------|--2--------3-----0--|
A-|--3--------3---------||--3-----------------|--------------------|
E-|---------------------||--------------------|--------------------|


                               /\
e-|---------------0-----|-----3--0------------|-----------0--------|
B-|---1--------3-----3--|--1--------3-----0---|--1--------1--------|
G-|---------0-----------|--------------2------|-----------0--------|
D-|------2-----3--------|--2--------3-----0---|--------------------|
A-|---3-----------------|---------------------|--3--------3--------|
E-|---------------------|---------------------|--------------------|
      ritardando _ _ _ _ _ _ _ _ _ _ _ _ _ _ _ _ _ _ _ _ _ _ _ _ _ _

e-|-------------------||
B-|---1---------------||
G-|---0---------------||
D-|---2---------------||
A-|---3---------------||
E-|-------------------||
  _ _ _

Ahora podés usar Yahoo! Messenger desde tu celular. Aprendé cómo hacerlo en Yahoo! Móvil: http://ar.mobile.yahoo.com/sms.html
     
Добавлено: 07.06.2013
Другие материалы по этой песне:
  • Аккорды и текст

Страница создана 07.06.2013
http://primanota.ru/molino/romanza-chords.htm
Привет, Гость.
Предлагаем пройти революционный курс по гитаре.
Подарок от PrimaNota.Ru, забирай!