PrimaNota.ru - самый крупный в мире бесплатный архив песенных текстов, аккордов, табулатур и нот


Mokoma - Uusi Aamu - таба, видео

Регистрация Запомнить меня
Войти через:  Facebook Google Twitter Vk Yandex Mail.ru

Mokoma - Uusi Aamu - таба, видео

Печатать
Просмотров: 153
Уроки эстрадного вокала в Санкт-Петербурге
Авторы музыки: Marko Annala, Kuisma Aalto
Авторы текста: Marko Annala
-------------------------------------------------------------------------------
                             Uusi Aamu - Mokoma
-------------------------------------------------------------------------------
Tabbed by: dj20b22
E-mail: dj20b22@gmx.com

couldn't find a tab for this song so I figured it out listening and watching this guy's youtube cover:
https://www.youtube.com/watch?v=fwPiicftBQk

Tuning: Drop D

Intro x3
e|-------------------------------|
B|-------------------------------|
G|-------------------------------|
D|-0--0-0--4p0-3p0-0-0--3--2-----|
A|-0--0-0----------0-0--1--0--3--|
D|-0--0-0----------0-0--------3--|

Tail x1
e|--------------------------------------------------------------------------------------|
B|--------------------------------------------------------------------------------------|
G|--------------------------------------------------------------------------------------|
D|-0--0-0--1--0-0--4--0-0--1------------------------------------------------------------|
A|-0--0-0--1--0-0--4--0-0--1------------------------------------------------------------|
D|-0--0-0--1--0-0--4--0-0--1------------------------------------------------------------|

x4
e|----------------------------------------------------|
B|----------------------------------------------------|
G|---------------11-10-7-------10-9--6-------9--8--5--|
D|-0--0-0--0--0-----------0-0-----------0-0-----------|
A|-0--0-0--0--0--9--8--5--0-0--8--7--4--0-0--7--6--3--|
D|-0--0-0--0--0-----------0-0-----------0-0-----------|


Verse (roughly same as first part of intro)
e|-------------------------------|
B|-------------------------------|
G|-------------------------------|
D|-0--0-0----------0-0--3--2-----|
A|-0--0-0----------0-0--1--0--3--|
D|-0--0-0--4p0-3p0-0-0--------3--|

Tail x1
e|--------------------------------------------------------------------------------------|
B|--------------------------------------------------------------------------------------|
G|--------------------------------------------------------------------------------------|
D|-0--0-0--1--0-0--4--0-0--1------------------------------------------------------------|
A|-0--0-0--1--0-0--4--0-0--1------------------------------------------------------------|
D|-0--0-0--1--0-0--4--0-0--1------------------------------------------------------------|

Tail (tremolo pick - play instead of above riff on second time through)
e|-----------------------------------------------------------------------------|
B|-----------------------------------------------------------------------------|
G|-----------------------------------------------------------------------------|
D|-----------------------------------------------------------------------------|
A|-----------------------------------------------------------------------------|
D|-13-12-13-15-16-15-13-15-----------------------------------------------------|

Chorus (roughly same as second part of intro)
x3
e|----------------------------------------------------|
B|----------------------------------------------------|
G|---------------11-10-7-------10-9--6------9--8--5---|
D|-0--0-0--0--0-----------0-0-----------0-0-----------|
A|-0--0-0--0--0--9--8--5--0-0--8--7--4--0-0--7--6--3--|
D|-0--0-0--0--0-----------0-0-----------0-0-----------|

Tail x1________________________________________________End of first chorus/transition to second verse
e|----------------------------------------------------|------------------|
B|----------------------------------------------------|------------------|
G|---------------11-10-7------------------------------|------------------|
D|-3--3-3--3--3-----------1--0--1--3--4--3--1--3------|-0--0-0--3p0-4p0--|
A|-3--3-3--3--3--9--8--5--1--0--1--3--4--3--1--3------|-0--0-0-----------|
D|-3--3-3--3--3-----------1--0--1--3--4--3--1--3------|-0--0-0-----------|

Bridge

e|-----------------------------------|
B|-----------------------------------|
G|-----------------------------------|
D|--0~------4-3h4p3----3-2----2-1----|
A|--0~--------------5------4------3--|
D|--0~-------------------------------|

e|------------------------------------------------|
B|------------------------------------------------|
G|----------11-10/11\10--7----10-9--6----9--8--5--|
D|--0~--------------------------------------------|
A|--0~------9--8/ 9 \8---5----8--7--4----7--6--3--|
D|--0~--------------------------------------------|

That's all the riffs.  Listen to the song to get the timing, picking, and order.

If I try to figure out the solo I'll post it too.

************************************

| /   slide up
| \   slide down
| h   hammer-on
| p   pull-off
| ~   vibrato
| +   harmonic
| x   Mute note
| b   Bend
| pb  Pre-bend
| br  Bend release
| pbr Pre-bend release
| brb Bend release bend

************************************
Добавлено: 03.10.2015
Вам также может быть интересно:
Другие материалы по этой песне:
  • Аккорды и текст

Страница создана 03.10.2015
http://primanota.ru/mokoma/uusi-aamu-chords.htm
Привет, Гость.
Предлагаем пройти революционный курс по гитаре.
Подарок от PrimaNota.Ru, забирай!