PrimaNota.ru - самый крупный в мире бесплатный архив песенных текстов, аккордов, табулатур и нот


Mojave 3 - Writing To St Peter - таба, видео

Регистрация Запомнить меня
Войти через:  Facebook Google Twitter Vk Yandex Mail.ru

Mojave 3 - Writing To St Peter - таба, видео

Печатать
Просмотров: 106
Artist: Mojave 3
Song: Writing To St. Peter
Album: Spoons & Rafters
Tabbed by: Don Tago
Email: recebedou@yahoo.com


Standard Tuning (Capo VI)

Chords:
    EADGBe
Am: 002210
C:  032010
G:  320033


Intro/Verse Riff:
    G                               C
e|------------3-------3-------3---------------3-------3--------3---|
B|----3---3-------3-------3-------3---1---1-------1-------1--------|
G|-----------------------------------------------------------------|
D|------0-------0-------0-------0-------2-------2-------2--------2-|
A|-----------------------------------------------------------------|
E|--3-------3-------3-------3-------3-------3-------3--------3-----|

Chorus Riff:
   Am                              G
e|------------0-------0-------0---------------3-------3-------3---|
B|----1---1-------1-------1----------3---3-------3-------3--------|
G|----------------------------------------------------------------| then,
D|------2-------2-------2-------2------0-------0-------0-------0--|
A|--0-------0-------0-------0-------------------------------------|
E|---------------------------------3-------3-------3-------3------|

    C                                G
e|------------3-------3--------3---------------3-------3-------3----|
B|----1---1-------1-------1------------3---3-------3-------3--------|
G|------------------------------------------------------------------|
D|------2-------2-------2--------2-------0-------0-------0-------0--|
A|------------------------------------------------------------------|
E|--3-------3-------3--------3-------3-------3-------3-------3------|


Intro: Use Intro/Verse Riff x2

Verse: Use Intro/Verse Riff x4
G                         C                         G
Said she's writing to St. Peter, ‘cause it didn't haunt her
    C           G
Be quite so low 
                          C                G     C
To bring an angel to her doll and help her walk away

Chorus: Use Chorus Riff
Am                   G                        C
  Tied in black and white, you're a book that bind
     G            Am
and wraps around
                       G                    C
A colour painted on a wall, there's nothing here
            G
That's any brighter

:same structure for the rest of the song…
Добавлено: 14.05.2012
Другие материалы по этой песне:
  • Аккорды и текст

Страница создана 14.05.2012
http://primanota.ru/mojave-3/writing-to-st-peter-chords.htm
Привет, Гость.
Предлагаем пройти революционный курс по гитаре.
Подарок от PrimaNota.Ru, забирай!