PrimaNota.ru - самый крупный в мире бесплатный архив песенных текстов, аккордов, табулатур и нот


Moistboyz - The Fury - таба, видео

Регистрация Запомнить меня
Войти через:  Facebook Google Twitter Vk Yandex Mail.ru

Moistboyz - The Fury - таба, видео

Печатать
Просмотров: 47
MOISTBOYZ - THE FURY

Drop D tuning

this is a nice and simple tune. under two minutes and doesn't let up in it's 

CHORUS RIFF
e|---------------------|
b|---------------------|
G|---------------------|
D|-------------0-------|
A|-3-0---0-2-3----3----|
D|-----4------------0--| 3x

e|------------------------------------------------------------|
b|------------------------------------------------------------|
G|------------------------------------------------------------|
D|------------------------------------------------------------|
A|------0------0------0------0------0------0------0------0----|
D|-0--4---0--4---0--4---0--4---0--4---0--4---0--4---0--4---0--|

VERSE RIFFS
e|---------------------|    e|--------------|
b|---------------------|    b|--------------|
G|---------------------|    G|--------------|
D|---------------------|    D|--------------|
A|---------------------|    A|--------------|
D|-0(0)0(0)-0-0-3-5-6^-|3x  D|-0-0-3-0-6^-3-|1x

do this part on the 7th bar before the chorus
e|---------------------|    e|--------------|
b|---------------------|    b|--------------|
G|---------------------|    G|--------------|
D|-0(0)0(0)-0-0-3-5-6^-|    D|-0-0-3-0-6^-3-|
A|---------------------|    A|--------------|
D|---------------------|3x  D|--------------|1x

some of these lyrics may be wrong as Guy doesn't seem to care for annunciation.  

VERSE I

you didn't know that i was high
you're so lame you wouldn't even try
i am the super man, so catch me if you can
from what i've seen, you might even die
i'm a man, you are still a tool
sober up and you become a fool
doin' rails in the car after in drinkin' in the bar
and rock n' rollin', then i take you to school 

CHORUS

i am the steel and the fury that you feel
breakin' my back while i watch your bitch's crack
i am the dog you need when you start to puke and bleed
bleed! bleed!

VERSE II (i'm really not sure about this verse)

whining in the middle of the night
i am there before your girlfriend twice
the next thing you know, it's time to do the show
doesn't matter if i'm wrong or right
i'm your head when you lose your mind
standing tall when you lose your spine
you know i seen it all when you're about to fall
i'm the one you call to win the fight


That's it. Now go outside and play. 
Добавлено: 03.08.2015
Другие материалы по этой песне:
  • Аккорды и текст

Страница создана 03.08.2015
http://primanota.ru/moistboyz/fury-chords.htm
Привет, Гость.
Предлагаем пройти революционный курс по гитаре.
Подарок от PrimaNota.Ru, забирай!