PrimaNota.ru - самый крупный в мире бесплатный архив песенных текстов, аккордов, табулатур и нот


Moist - Better Than You - аккорды и текст, таба, видео

Регистрация Запомнить меня
Войти через:  Facebook Google Twitter Vk Yandex Mail.ru

Moist - Better Than You - аккорды и текст, таба, видео

Печатать
Просмотров: 153
Уроки эстрадного вокала в Санкт-Петербурге
Better Than You
Moist
		   Album: Creature (1996)

In my opinion this is one of Moist's better songs.
I'm pretty sure I tabbed it right(other than end
of chorus)but if you have any questions, comments,
corrections, or additions you can e-mail me at the
address above.

Main Riff:
E|------------------------||
B|---------------5-3---3--||***************************
G|-----2--------2-------2-||*Played in the intro as   *
D|--4--2---2-2h4----------||*well as in the background*
A|--4--0------------------||*during the verses.       *
E|--2---------------------||***************************

Pre-Chorus 1:
E|-----|-----|-----|-----||
B|-----|-----|-----|-----||
G|--6--|-----|--7--|--7--||
D|--6--|--4--|--7--|--7--||
A|--4--|--4--|--5--|--5--||
E|-----|--2--|-----|-----||

Pre-Chorus 2:
E|-----|-----|-----|
B|-----|-----|-----|
G|--6--|-----|--7--|
D|--6--|--4--|--7--|
A|--4--|--4--|--5--|
E|-----|--2--|-----|

Chorus:
            {this is wrong}
E|-----|-----|-----|-----||
B|-----|-----|-----|-----||
G|--4--|--3--|-----|--2--||
D|--4--|--4--|--4--|--2--||
A|--2--|--4--|--4--|--0--||
E|-----|--2--|--2--|-----||

Solo:
E|-------------------------------0------------------------5-|
B|-------------------------------------------------------5--|
G|--4b~--6p4-2---------------4b~---6p4-2-------------4b~----|
D|--------------4~-4-2h4-4---------------4~-4-2h4-4---------|
A|----------------------------------------------------------|
E|----------------------------------------------------------|

E|----------------------------------------------------------|
B|----------------------------------------------------------|
G|4b~r----2-4-2-----------2-4p2-------2-4p2---4-2--4p2--4-2-|
D|---------------4-2--2h4------2--2h4------2----------2-----|
A|----------------------------------------------------------|
E|----------------------------------------------------------|

E|-----||
B|-----||
G|-----||
D|-4-2-||
A|-----||
E|-----||

Outro:
E|-------------------------------|    |----------------------|
B|-------------------------------|    |----------------------|
G|-4--4444-4-4-44-/-66666-6-6-66-| 3x |-7--7777-7-7-77-9---9/|
D|-------------------------------|Then|----------------------|
A|-------------------------------|    |----------------------|
E|-------------------------------|    |----------------------|

Fill 1:
E|-----|
B|-----|
G|-----|
D|--5--|
A|--5--|
E|--3--|

Fill 2:
E|-----|-----|
B|-----|-----|
G|--4--|-----|
D|--4--|--4--|
A|--2--|--4--|
E|-----|--2--|


Here's the Order:

Fill 1:       (00:02)-1x
Main Riff:
In foreground (00:02)-4x
In Background (00:21)-4x
Pre-Chorus 1: (00:39)-1x
Chorus:       (00:48)-2x
Main Riff:
In Foreground (01:06)-2x
In Background (01:15)-4x
Pre-Chorus 2: (01:33)-1x
Chorus:       (01:40)-3x
Solo:         (02:07)-1x
Main Riff:
In Foreground (02:25)-4x
Chorus:       (02:43)-3x
Fill 2:       (03:10)-4x
Outro:        (03:28)-1x     
Добавлено: 25.09.2013
Другие материалы по этой песне:
  • Аккорды и текст

Страница создана 19.03.2012
http://primanota.ru/moist/better-than-you-chords.htm
Привет, Гость.
Предлагаем пройти революционный курс по гитаре.
Подарок от PrimaNota.Ru, забирай!