PrimaNota.ru - самый крупный в мире бесплатный архив песенных текстов, аккордов, табулатур и нот


Mohit Chouhan - Hawa Hawa Rockstar - таба, видео

Регистрация Запомнить меня
Войти через:  Facebook Google Twitter Vk Yandex Mail.ru

Mohit Chouhan - Hawa Hawa Rockstar - таба, видео

Печатать
Просмотров: 28
Lead 1
e|------------------|
B|-9-10-9-----------|
G|---------11-10-9--|
D|------------------|
A|------------------|
E|------------------|

Lead 2 
e|-----------------------------------------------------------------|
B|--------------------9-10-9-10---10-9-10-9------------------------|
G|-9-10-9-10-11-10----------------------------10-11-10-9-10-9------|
D|-----------------------------------------------------------------|
A|-----------------------------------------------------------------|
E|-----------------------------------------------------------------|

Lead 3 
e|-----------------------------------------|
B|-----------------------------------------|
G|-9-10-9-11-----------9-10-9-11-----------|
D|-------------10-9-----------------10-9---|
A|-----------------------------------------|
E|-----------------------------------------|

Solo (play it very fast )
e|------------------------------------------------|
B|-9-h10-11--10-11-10-9-10------------------------|
G|------------------------------9-10-9-11---------|
D|-------------------------------------------10-9-|
A|------------------------------------------------|
E|------------------------------------------------|


Lead 4 (in the mid of song )
e|--------------------------------------------------------------------------------------------|
B|-15/17-17-17-17-17b-17-15--13-12-15-15-13-12-13-12-15/17-17-17-17-17b-15-13-12---12/17------|
G|--------------------------------------------------------------------------------------12/17-|
D|--------------------------------------------------------------------------------------------|
A|--------------------------------------------------------------------------------------------|
E|--------------------------------------------------------------------------------------------|

Добавлено: 09.11.2015
Другие материалы по этой песне:
  • Аккорды и текст

Страница создана 09.11.2015
http://primanota.ru/mohit-chouhan/hawa-hawa-rockstar-chords.htm
Привет, Гость.
Предлагаем пройти революционный курс по гитаре.
Подарок от PrimaNota.Ru, забирай!