PrimaNota.ru - самый крупный в мире бесплатный архив песенных текстов, аккордов, табулатур и нот


Mohit Chauhan - Saada Haq - таба, видео

Регистрация Запомнить меня
Войти через:  Facebook Google Twitter Vk Yandex Mail.ru

Mohit Chauhan - Saada Haq - таба, видео

Печатать
Просмотров: 142
Уроки эстрадного вокала в Санкт-Петербурге
song: saada haq from the movie ROCKSTAR(Ranbir Kapoor)

This is the original tabs played by the team.

so the tuning will be:Drop D

Intro goes something like this

e-------------------------------------------|
B-------------------------------------------|
G-------------------------------------------|
D-------------------------------------------|
A--4-----5--4--2---4------5---4--2----4-----|
D-----4---------------4-----------------4---|


Riffs played during --"Saada haq eethe rakh"
(- -) the space means that there is palm mute

e-------------------------------------------------------------------|
B-------------------------------------------------------------------|
G-------------------------------------------------------------------|
D------------------------------------6-6- --6-6- -------------------|
A---4-4- --4-4- ----0-0- --0-0-------4-4- --4-4- ---0-0- --0-0-- ---|
D---4-4- --4-4- ----0-0- --0-0----------------------0-0-- -0-0-- ---|


e--------------------------------------------------------|
B-----------12--14--------------12--14------------12--14-|
G-11--13-14---------11--13-14-----------11--13-14--------|
D--------------------------------------------------------|
A--------------------------------------------------------|
E--------------------------------------------------------|



e---14----14-----12-(milli second MUTE)--11--------------------------|
B------14----14-----------------------------14-----------------------|
G--------------------------------------------------------------------|
D--------------------------------------------------------------------|
A--------------------------------------------------------------------|
E--------------------------------------------------------------------|
Добавлено: 08.12.2013
Другие материалы по этой песне:
  • Аккорды и текст

Страница создана 29.09.2013
http://primanota.ru/mohit-chauhan/saada-haq-chords.htm
Привет, Гость.
Предлагаем пройти революционный курс по гитаре.
Подарок от PrimaNota.Ru, забирай!