PrimaNota.ru - самый крупный в мире бесплатный архив песенных текстов, аккордов, табулатур и нот


Mogwai - Ex-cowboy - таба, бас-таба, видео

Регистрация Запомнить меня
Войти через:  Facebook Google Twitter Vk Yandex Mail.ru

Mogwai - Ex-cowboy - таба, бас-таба, видео

Печатать
Просмотров: 169
Авторы музыки: Mogwai

Song: Ex-Cowboy
Artist: Mogwai
Album: Come On Die Young

Intro:

E|-----------------|
A|-----------------|
D|-10-10-10-10/9-9-|
G|-----------------|
B|-----------------|
E|-----------------| x4

Main Riff:

E|-----------------------|
A|----------------7-7-7--|
D|-10-10-10-10/9-9-5-5-5-|
G|-----------------------|
B|-----------------------|
E|-----------------------|

Main Riff (Variation):

E|------------------------|
A|--------------7-7-------|
D|-10-10-10-10/9-9-5------|
G|------------------7-4/5-|
B|------------------------|
E|------------------------|

Quiet Part (After that feedback/drony part):

E|------------|
A|-7-8--5-5/7-|
D|-x-x--x-x-X-|
G|-9-10-7-7/9-|
B|------------|
E|------------| x4
Добавлено: 29.08.2015
Другие материалы по этой песне:
  • Аккорды и текст

Страница создана 09.07.2012
http://primanota.ru/mogwai/ex-cowboy-chords.htm
Привет, Гость.
Предлагаем пройти революционный курс по гитаре.
Подарок от PrimaNota.Ru, забирай!