PrimaNota.ru - самый крупный в мире бесплатный архив песенных текстов, аккордов, табулатур и нот


Mogwai - Batcat - таба, бас-таба, видео

Регистрация Запомнить меня
Войти через:  Facebook Google Twitter Vk Yandex Mail.ru

Mogwai - Batcat - таба, бас-таба, видео

Печатать
Просмотров: 199
BatCat
=======
Intro Riff/first half

Guitar 1(0:00)
e-------------------------------------------------------------|
b-------------------------------------------------------------|
G-------------------------------------------------------------|
D-------------------------------------------------------------|
A-------------------------------------------------------------|
E-0-0-0-12-12-12-10-10-10-0-0-0-8-8-8-0-0-0-10-10-10-12-12-12-|

Guitar 2(0:00)
e-0-0-0-0-0-0-0-0-0-0-0-0-0-0-0-0-0-0-0-0-0-0-0-0-0-0-0-0-0-0-|
b-x-x-x-x-x-x-x-x-x-x-x-x-x-x-x-x-x-x-x-x-x-x-x-x-x-x-x-x-x-x-|
G-9-9-9-9-9-9-9-9-9-9-9-9-9-9-9-9-9-9-9-9-9-9-9-9-9-9-9-9-9-9-|
D-------------------------------------------------------------|
A-------------------------------------------------------------|
E-------------------------------------------------------------|


Guitar 1(Changes with Drums-main riff)
e----------------------------------------------------------|
b----------------------------------------------------------|
G----------------------------------------------------------|
D----------------------------------------------------------|
A----------------------------------------------8-7-8-7-8-7-|
E-0-0-0-12-12-12-0-0-0-10-10-10-0-0-0-12-12-12-0-0-0-0-0-0-|

Guitar 3(Enters with Drums)
e-------------------------------------------------------|
b----11------11--------8------8----10----10-------------|
G-9------9-------9--------9-----9-----9-----------------|
D-------------------------------------------------------|
A-------------------------------------------8-7-8-7-8-7-|
E-------------------------------------------0-0-0-0-0-0-|

Guitar 1(Bridge kind of part)x4
e---------------------------------------------------------------------------|
b---------------------------------------------------------------------------|
G--5--5--5--7--7--7---------------------------------------------------------|
D--5--5--5--7--7--7---------------------------------------------------------|
A--3--3--3--5--5--5-------12h14-12h14-------12h14-12h14---------12h14-------|
E-------------------0-0-0------0------0-0-0------0--------0-0-0------0-0-0--|


Guitar 2(Bridge kind of part)x4
e---------------------------------------------------------------------------|
b-13-13-13-15-15-15---------------------------------------------------------|
G-12-12-12-14-14-14-------14h16-14h16--------14h16-14h16--------14h16-------|
D-10-10-10-12-12-12---------------------------------------------------------|
A---------------------------------------------------------------------------|
E-------------------0-0-0------0-------0-0-0------0--------0-0-0-----0-0-0--|
Добавлено: 01.03.2012
Другие материалы по этой песне:

Страница создана 01.03.2012
http://primanota.ru/mogwai/batcat-chords.htm
Привет, Гость.
Предлагаем пройти революционный курс по гитаре.
Подарок от PrimaNota.Ru, забирай!