PrimaNota.ru - самый крупный в мире бесплатный архив песенных текстов, аккордов, табулатур и нот


Moe - Silver Sun - аккорды и текст, видео

Регистрация Запомнить меня
Войти через:  Facebook Google Twitter Vk Yandex Mail.ru

Moe - Silver Sun - аккорды и текст, видео

Печатать
Просмотров: 74
Silver Sun
Moe
-------------------------------------------------------------------------------
                             Silver Sun - Moe.
-------------------------------------------------------------------------------
Tabbed by: Hunter Bauer  6/29/2015
E-mail: bauerhunter11@gmail.com

Timings taken from "No Guts No Glory" Album

Intro Jam 0:00-4:08: 
        1 + 2 + 3 + 4 + 1 + 2 + 3 + 4 +
          Am  C           Am  D5  C
e|--------0---0-----------0-------0------------------------------------|
B|--------1---1-----------1---3---1------------------------------------|
G|--------2---0-----------2---2---0------------------------------------|
D|--------2---2-----------2---0---2------------------------------------|
A|--------0---3-----------0-------3------------------------------------|
E|--------------------------------------------------------------------|

Solo over these chords in A Dorian

This riff is repeated a few times starting at 3:30 (acts as a indicator to move to next section)
e|---------------------------------------------------------------------------|
B|-----------8~~~----8-10----------------------------------------------------|
G|--------/9-------/9-----9p7---------7--------------------------------------|
D|----------------------------10--7h10--7------------------------------------|
A|---------------------------------------------------------------------------|
E|---------------------------------------------------------------------------|

The following chords lead into the verse section at 4:08:
Em > F > Ab > G  

C
Slowly on the silver sun swept
Em
Fields are falling away
F
Heiroglyphics hide & seek
G                 F
Inside the sky of yesterday

C
Watching while the windowpane
Em
Drips into the dresser drawers
F
Finding faces far too strange
G             F
Pondering the pouring rain

C
The sun beats down on silver spaceships
Em
Hovering above the ground
F
Shadows shooting shining round
G                F
Wonder where the world is now

C
Leaving light & lying low
Em
Breathing bright & evenflow
F
Picture pixels picking time
G              Ab             Am (First chord of the 5:04 Section)
Light the grid along the line 


The verses are all the same except the last one has the Ab that serves 
as a chromatic motion back to Am

Jam at 5:04:
Am > F
Solo in Am Pentatonic 

At 7:45 use that same riff from above a few times

At 8:15 do this chord sequence again:
Em > F > Ab > G  

Those chords lead into a simple C > F while playing that riff still

End on: G > Ab > A
Добавлено: 22.12.2015
Другие материалы по этой песне:
  • Аккорды и текст

Страница создана 22.12.2015
http://primanota.ru/moe/silver-sun-chords.htm
Привет, Гость.
Предлагаем пройти революционный курс по гитаре.
Подарок от PrimaNota.Ru, забирай!