PrimaNota.ru - самый крупный в мире бесплатный архив песенных текстов, аккордов, табулатур и нот


Moe - Bring You Down - таба, видео

Регистрация Запомнить меня
Войти через:  Facebook Google Twitter Vk Yandex Mail.ru

Moe - Bring You Down - таба, видео

Печатать
Просмотров: 109
Intro:


e------------12----------------------10---------------------------------------------------------------|
B----------------12------------12-----------------17--------------------------------------------------|
G-11b13------------13r11------------16b18------18r16-14\13-14p13--------------------------------------|
D-------------------------------------------------------------------------------------14--------------|
A------------------------------------------------------------------------------------------14\12--11--|
E-----------------------------------------------------------------------------------------------------|

e--------------12-----------------------------------------------------------------|
B---------------------------------------------------------------------------------|
G—11b13------13r11---9h11—9h11p9---------9--------9----9----9--9--9---------------|
D----------------------------------------------------12---9h11--11--11---9--7--6--|
A---------------------------------------------------------------------------------|
E---------------------------------------------------------------------------------|
-This same lead part is played 3 times throughout the song, two times before the solo and once at the end.


The other guitar part plays an E-Bminor-D-A, sort of arpegiating the entire song.
     -This rhythm guitar part plays this but when he goes "here with me" they skip the A 
the progression and strum.
That's the song, the solo is later, but you can just make one up
Holla.
Добавлено: 17.06.2012
Другие материалы по этой песне:
  • Аккорды и текст

Страница создана 17.06.2012
http://primanota.ru/moe/bring-you-down-chords.htm
Привет, Гость.
Предлагаем пройти революционный курс по гитаре.
Подарок от PrimaNota.Ru, забирай!