PrimaNota.ru - самый крупный в мире бесплатный архив песенных текстов, аккордов, табулатур и нот


Modulos - Tú Ya No Estás - таба, видео

Регистрация Запомнить меня
Войти через:  Facebook Google Twitter Vk Yandex Mail.ru

Modulos - Tú Ya No Estás - таба, видео

Печатать
Просмотров: 75
MODULOS TÚ YA NO ESTAS                             Santiago Muñoz

Intro: E|------------------------------------
       B|-4-45-45-7-54---45-54--4--45-6--5-6-
       G|--6-----------6------6--6-----------
       D|-----7------------7-----------------
        C#m   A*    C#m    A* C#m


       E|-45-45-7-9---9---9-11-11-9------------
       B|-----------9---9-----------9-7-5-4----
       G|-----------------------------------6--
       D|--------------------------------------
           A*      C#m      A*              C#


Db G# F#m Db G# F# Arpejeando


Db       G#         F#         Db
Tu ya no esta solo queda el recuerdo
       G#         F#      B       Db
De un amor cuando yo era feliz y soñé
          D#m   A#m        G#         C#
Que algún día lejano volvería a sonreír
         G#        F#         C#
No es verdad solo pienso reír
     G#        F#        B         Db
Es igual todo cambia sin ti sin querer
      D#m     A#m             G#          C#
Solo tengo recuerdos de esos días junto a ti
        G#      F#         C#   C#m
Ya no esta otra vez a mí lado.


C#m             A*       A* G# F#
Quiero estar cerca de ti
       G#              C#m Riff 1 B-454------
Quiero hablarte de mi amor        G----64-4-6
C#m            A*        A* G# F# D------6---
Quiero estar cerca de ti
F#            B        B B  A A  G# C#
Solo queda la ilusión


                E|----6--6---------------|
Punteo          B|-679-9--97--679--676---|
                G|----------8---------86-|
Ho ho ho ho     D|-----------------------|
                  C#   G#  F#         C#

                E|----6-11-8--------------|----------|
                B|-679-9----9-7-676-676---|--43------|
                G|-------------8-------8-6|----53-35-|
                D|------------------------|------5---|
                       G#    F#       C#          C#m


             A*          A* G# F#
Quiero estar cerca de ti
       G#             C#m    Riff 1
Quiero hablarte de mi amor
C#m          A*         A*  G# F#
Quiero estar cerca de ti
 F#            B       B B  A A  G#
Solo queda la ilusión

C#         G#        F#       C#
Tu ya no estas es primero esperar
        G#        F#       C#   C#m, Entra el Punteo del inicio


Acordes:
             A*  B  C#  C#m  Db/C#  D#m  F#  G#
        E|---5---7--4----4-----9-----6----2--4-
        B|---5---7--6----5-----9-----7----2--4-
        G|---6---8--6----6-----10----8----4--5-
        D|---7---9--6----6-----11----8----5--6-
        A|---7---9--4----4-----11----6----5--6-
        E|---5---7--x----x-----9-----x----2--4-


Escuchar la canción, y después ponerla en practica, ser pacientes?

Alguna duda, comentario ???????

Un saludo a los amantes de la BUENA Música, y sobre todo de la Guitarra.
Добавлено: 18.05.2016
Другие материалы по этой песне:
  • Аккорды и текст

Страница создана 18.05.2016
http://primanota.ru/modulos/tu-ya-no-estas-chords.htm
Привет, Гость.
Предлагаем пройти революционный курс по гитаре.
Подарок от PrimaNota.Ru, забирай!