PrimaNota.ru - самый крупный в мире бесплатный архив песенных текстов, аккордов, табулатур и нот


Modulos - En Mis Sueños - таба, видео

Регистрация Запомнить меня
Войти через:  Facebook Google Twitter Vk Yandex Mail.ru

Modulos - En Mis Sueños - таба, видео

Печатать
Просмотров: 80
Intro:        [ch]A[/ch]                          [ch]E[/ch]
        E|-------------------|---------------------|
        B|--------7----------|-----------------5---|
        G|--6-999---976-766--|---------------6-----|
        D|-------------------|----7-9-7---7-7------|
        A|-------------------|-7-9------9----------|

[ch]A                    C#m[/ch]                              [ch]G[/ch]
Intentando contestarte,   y ésta noche quiero hablarte
                             [ch]F#             SIm[/ch]
Lo que solo me atreví a soñar.  .Riff
                     [ch]Dm[/ch]
En los días mil regresos,  en las noches mil momentos
[ch]A              [ch]Bm[/ch]                  [ch]E[/ch]        LA[/ch]
Que, te quise decir. . Riff

                          C#m                            [ch]G[/ch]
Es contigo con quien sueño,   es por ti por qué no duermo.
                                 [ch]F#         SIm[/ch]
Y es tú imagen que vive en mí ser.   Riff
                        [ch]Dm                            LA[/ch]
En los días mil intentos,   en las noches mil momentos si,
            [ch]Bm       [ch]E[/ch]                  LA[/ch]
Soñando por ti. ..Riff    Ho Ho Ho Ho

                           C#m                               [ch]G[/ch]
Si nos queda algún momento,   que no existan nuestros cuerpos
                            [ch]F#             SIm[/ch]
Y sin ti, mi amor podre llegar.  Riff
                       [ch]Dm                          LA[/ch]
Sé que lograre decirte,    que mi vida solo existe, si,

 [ch]Bm[/ch]       [ch]E[/ch]
 Vivo por ti   Riff

 Punteo

   [ch]A[/ch]
E|-------------------------------------|
B|--------7----------------------------|
G|--6-999---9-7-9-7-6----------------6-|
D|--------------------9-7-6----6-7-9---|
A|--------------------------7-9--------|

E|----------7-----------------
B|------7-10-9-7----7---------
G|6-999----------9-9-9-7-6----
D|-------------------------9--
A|----------------------------


E|--------------9-9-7------------7-9---------7-------
B|----7----9----------10-7----710----10-7-10---10-7--
G|--67---67---67-----------9-9-----------------------
D|-9----9----9---------------------------------------
A|---------------------------------------------------
E|---------------------------------------------------


     [ch]E[/ch]
E|---0-----------------
B|---0-----------------
G|---1-----2-4-2-2-----
D|---2-2-4------4------
A|---2-----------------
E|---0-----------------

[ch]A                        C#m[/ch]                                  [ch]G#[/ch]
Si nos queda algún momento,    que no existan nuestros cuerpos
                               [ch]F#       SIm[/ch]
Y sin ti mi amor, podre llegar,    Riff
                         [ch]Dm                         [ch]A[/ch]               SIm[/ch]
En los días mil intentos    en las noche mil momento si soñando por ti

Ho ho ho ho


         [ch]E   LA[/ch]
E|--------0---5--------------------5---
B|--------0---5--------------------5---
G|--6-----1---6--------4-------7-6-6---
D|-9-9-7--2---7----4-7---7676------7---
A|------9-2---7--7------------7----7---
E|--------0---5--------------------5---


       [ch]A       C#m      [ch]G#[/ch]      [ch]F#[/ch]   SIm[/ch]   [ch]E[/ch]
E|-----5---------4--------4---------2-----7----0-
B|-----5---------5--------4---------2-----7----0-
G|-----6---------6--------5---------3-----7----1-
D|-----7---------6--------6---------4-----9----2-
A|-----7---------4--------6---------4-----9----2-
E|-----5---------x--------4---------2-----7----0-
Добавлено: 19.05.2016
Другие материалы по этой песне:
  • Аккорды и текст

Страница создана 19.05.2016
http://primanota.ru/modulos/en-mis-suenos-chords.htm
Привет, Гость.
Предлагаем пройти революционный курс по гитаре.
Подарок от PrimaNota.Ru, забирай!