PrimaNota.ru - самый крупный в мире бесплатный архив песенных текстов, аккордов, табулатур и нот


Modulos - Adiós Al Ayer - таба, видео

Регистрация Запомнить меня
Войти через:  Facebook Google Twitter Vk Yandex Mail.ru

Modulos - Adiós Al Ayer - таба, видео

Печатать
Просмотров: 153
Уроки эстрадного вокала в Санкт-Петербурге
Módulos: Adiós al Ayer                Santiago Muñoz
Intro; Cm     Ab     Cm         Ab         C#           D      Eb
E|--88-6-------------88-6--------------------------------------------
B|------868689-6---9------868689-6---9-7-----------------------------
G|---------------8-----------------8-----8-6-----6-8-6---------------
D|-------------------------------------------6-8-------4---4645----5-
A|------------------------------------------------------4-6-----5-7--
E|-------------------------------------------------------------------


Cm           Bb             Fm                 G
Quise decir adiós al ayer adiós y empecé a olvidar
Cm           Bb             Fm                 G
Quise borrar palabras de Amor, que suenan a soledad.
     Cm                   Bb          Fm                      Eb
Y sentir que el destino pasaba con su voz triste y ronca me hablaba
                       Bb      Ab        G
El calor de su amor se quemaba ya te olvidé

Punteo:
   Cm        Bb          Cm      Bb             Ab           G
E|----------------------------------------------------------------
B|---8-6-8--8-6-------6- --8-6-8-8-6-------6----------------------
G|-5------------8-7-8----5-----------8-7-8-------8-7-8-7-5-4-5-7--
D|-------------------------------------------8-6------------------
A|----------------------------------------------------------------
E|----------------------------------------------------------------

E|---------------------------------------
B|---8-6-8-8-6-------6-------------------
G|-5-----------8-7-8----8-7-5-55---------
D|------------------------------8-88-5---
A|---------------------------------------
E|---------------------------------------

Cm           Bb             Ab                   G
Quise decir adiós al ayer adiós   sin mirar a tras
Cm              Bb               Ab             G
Todo cambio al verte llegar tus ojos mire al pasar
      Cm                 Bb      Fm                  Eb
Y sentí que su luz me llenaba el calor a mi pecho llegaba
                            Bb  Ab       G
Comprendí que algo nuevo pasaba era el Amor

Cm             Bb               Cm            Bb
Hoy soy feliz vuelvo a caminar quiero olvidar que por ti llore
Ab           G
Quiero vivir quiero respirar
  Cm           Bb                      Cm Bb G
Y al despertar hoy le digo a adiós al ayer.  =Intro


  Cm/Dom    Bb/La#   Ab/Sol#   G/Sol   Eb/Re#  Fm/Fam
Em -3-       -1-      -4-      -3-      -3-      -1-
Bm -4-       -3-      -4-      -3-      -4-      -1-
Gm -5-       -3-      -5-      -4-      -3-      -1-
Dm -5-       -3-      -6-      -5-      -1-      -3-
Am -3-       -1-      -6-      -5-      -x-      -3-
Em -X-       -x-      -4-      -3-      -x-      -1-
Добавлено: 19.05.2016
Другие материалы по этой песне:
  • Аккорды и текст

Страница создана 19.05.2016
http://primanota.ru/modulos/adios-al-ayer-chords.htm
Привет, Гость.
Предлагаем пройти революционный курс по гитаре.
Подарок от PrimaNota.Ru, забирай!