PrimaNota.ru - самый крупный в мире бесплатный архив песенных текстов, аккордов, табулатур и нот


Modspil - Mod Din Vilje - аккорды и текст, видео

Регистрация Запомнить меня
Войти через:  Facebook Google Twitter Vk Yandex Mail.ru

Modspil - Mod Din Vilje - аккорды и текст, видео

Печатать
Просмотров: 63
Mod Din Vilje
Modspil
Modspil - Mod din vilje
Capo 4. fret  All chords refer to capo
This is my first tab, so any comments are welcome to improve the next one :-)

Intro
e----------------------------------------------------------------------------------------------
h----------------------------------------------------------------------------------------------
G-----------------------------------------------------------------------0----------------------
D------0---2p0-------------------0-----------------0--2p0--------------------------------------
A---2---------------2----0---2-------2----------2------------2--0--1/2-------------------------
E----------------------------------------------------------------------------------------------

e----------------------------------------------------------------------------------------------
h----------------------------------------------------------------------------------------------
G----------------------------------------------------------------------------------------------
D------0---2p0-------------------0------------------------------------(2)----------------------
A---2---------------2----0---2-------2-------------3--2--0-----0----(2)------------------------
E----------------------------------------------------------------3----2--0---------------------



G           D             Em
Vi har ikke prøvet hårdt nok 
C         Bm             Em
Næh, vi har ikke knoklet nok 
C           D                 G            Em
Vi har ikke lidt og haft det skidt, særlig tit 
C               Bm             Em
Smukke, vi har slet ikke slidt

G                D             Em
Så jeg vil ikke la' dig slippe væk 
C                 Bm                  Em
Jeg vil ikke ha', at du skal stikke af
C           D                     G            Em
Og møde andre mænd, for jeg er mere mand end dem 
C                      Bm                  Em
Og jeg vil slås, til det bliver os igen 


G                           Em
Jeg vil presse dig og plage
 Bm                    Em                  
Please, tag mig tilbage 
G                       D
Vi passer perfekt dig og mig 
Bm                                   Em  
Og jeg tager ikke et nej for et nej 

G                     Em
Så bli'r vi mod din vilje
Bm            Em 
en lille familie 
G               D
Før du får flygtet
Bm               Em 
Alt sammen frygtet 

Solo
G  D Em C  Bm Em G  D Em Bm   Em   


G             D             Em
Alt er ligesom i min fantasi 
C         Bm               Em
Danser rundt til samme melodi
C         D                     G               Em
Så pludselig uden grund, dykker dit humør i bund 
C                      Bm                 Em
Og desværre, så beklager jeg mig kun

 G                    Em
Så ka' vi starte forfra, 
Bm                  Em 
med angreb og forsvar 
G                                D
Om præcis så hvorfor du gjorde det
Bm                     Em 
Og med undskyld jeg spurgte

G                    Em
Min allersidste chance 
Bm                  Em 
var med dig i balance
G                     D
Og nu tager jeg på druk
Bm                        Em 
Og min gud, hvor er du smuk 


G                D                      Em
Og med prøv at tænk på andre end dig selv 
C              Bm                  Em 
Og med jeg vil ikke si' dig mer' farvel
G               D               Em
Og med du er så følsom og speciel 
C             Bm               Em 
Og med jeg vil ikke gå alligevel 

G                 D                 Em
Jeg vil passe bedre på dig næste gang 
C            Bm                    Em 
Fik jeg gjort en kort historie lang 
G                   D               Em
Jeg vil passe bedre på dig næste gang 
C                  Bm              Em 
Alt jeg vil sige i denne tåbelige sang

Break
Outro
G  D Em C Bm    Em   x 2
Fade

Добавлено: 23.10.2015
Вам также может быть интересно:
Другие материалы по этой песне:
  • Аккорды и текст

Страница создана 23.10.2015
http://primanota.ru/modspil/mod-din-vilje-chords.htm
Привет, Гость.
Предлагаем пройти революционный курс по гитаре.
Подарок от PrimaNota.Ru, забирай!