PrimaNota.ru - самый крупный в мире бесплатный архив песенных текстов, аккордов, табулатур и нот


Modestep - Machines - бас-таба, видео

Регистрация Запомнить меня
Войти через:  Facebook Google Twitter Vk Yandex Mail.ru

Modestep - Machines - бас-таба, видео

Печатать
Просмотров: 175
-------------------------------------------------------------------------------
                             Machines - Modestep
-------------------------------------------------------------------------------
Tabbed by: Darkslider
E-mail: tombruggeman@outlook.com

Tuning: CGCF (C tuning)

I used the bass boosted version on Youtube:  
https://www.youtube.com/watch?v=l3F7-M4AKzY&list=PL7s-_1NFzsR1cRamh6_j_DFn_yu1MAJfZ&index=191

There might be some mistakes left, but it's pretty close.


[Verse]

0:12
F|-----------------|
C|-----------------|
G|-----------------| 
C|-7-7-7-7-7-7-7-7-|  x8

0:42
F|---------------------------------|
C|---------------------------------|
G|-----------------8-8-8-8-5-5-5-5-| 
C|-7-7-7-7-7-7-7-7-----------------| x2


[Chorus]

0:57
F|----------------------------------------------------------|
C|----------------------------------7-----------------------|
G|-----------------------7----5-7-8------------/7-----------|
C|-7-7-10\--7-7-10\--7-7---------------3-3--3-3---3-3--2-3-5|

F|----------------------------------------------------------|
C|----------------------------------7-----------------------|
G|-----------------------7----5-7-8------------/7-----------|
C|-7-7-10\--7-7-10\--7-7---------------3-3--3-3---3-3------7|


[Bridge]

1:42
F|---------------------------------|
C|---------------------------------|
G|---------------------------------| 
C|-7-7-7-7-7-7--3-3-3-3-0-0--------| x3

F|---------------------------------|
C|---------------------------------|
G|---------------------------------| 
C|-7-7-7-7-7-7--3~-3-3--3-0~-0-0---|


[Verse]

F|---------------------------------|
C|---------------------------------|
G|-----------------8-8-8-8-5-5-5-5-| 
C|-7-7-7-7-7-7-7-7-----------------| x2


[Chorus]

F|----------------------------------------------------------|
C|----------------------------------7-----------------------|
G|-----------------------7----5-7-8------------/7-----------|
C|-7-7-10\--7-7-10\--7-7---------------3-3--3-3---3-3--2-3-5|

F|-----------------------------------------------------------|
C|----------------------------------7------------------------|
G|-----------------------7----5-7-8------------/7------------|
C|-7-7-10\--7-7-10\--7-7---------------3-3--3-3---3-3------7~|


[Bridge]

3:12
F|---------------------------------|
C|---------------------------------|
G|---------------------------------| 
C|-7-7-7-7-7-7--3-3-3-3-0-0--------| x3

F|---------------------------------|
C|---------------------------------|
G|---------------------------------| 
C|-7-7-7-7-7-7--3~-3-3--3-0~-0-0---|


[Outro]

F|-------------------------------------|
C|-------------------------------------|
G|-------------------------------------| 
C|-7-7-7-7-7-7-7-7--3-3-3-3-0-0-0-0----| x3

F|-------------------------------------|
C|-------------------------------------|
G|-------------------------------------| 
C|-7-7-7-7-7-7-7-7--3~-3-3--3-0~-0-0---|




| /  slide up
| \  slide down
| h  hammer-on
| p  pull-off
| ~  vibrato
| +  harmonic
| x  Mute note
===============================================================================
Добавлено: 20.12.2015
Вам также может быть интересно:
Другие материалы по этой песне:
  • Аккорды и текст

Страница создана 20.12.2015
http://primanota.ru/modestep/machines-chords.htm
Привет, Гость.
Предлагаем пройти революционный курс по гитаре.
Подарок от PrimaNota.Ru, забирай!