PrimaNota.ru - самый крупный в мире бесплатный архив песенных текстов, аккордов, табулатур и нот


Modest Mouse - This Is A Long Drive For Someone With Nothing To Think About - таба, видео

Регистрация Запомнить меня
Войти через:  Facebook Google Twitter Vk Yandex Mail.ru

Modest Mouse - This Is A Long Drive For Someone With Nothing To Think About - таба, видео

Печатать
Просмотров: 97
THIS IS A LONG DRIVE FOR SOMEONE WITH NOTHING TO THINK ABOUT
by Modest Mouse (1996)
(Album Tab)

-----------------------------------------------------

Isaac Brock - guitars, vocals, (drums on "dog paddle")
Jeremiah Green - drums, (bass on "dog paddle")
Eric Judy - bass, (guitar on "dog paddle")

Steve Wold - slide guitar, mandolin, guitar, backup vocals
Brent Arnold - cello
Nicole Johnson - vocals on 3, 7 and 8
Calvin Johnson - vocals on 8

-----------------------------------------------------

Tabbed by: devin miller
Email: irish__nugget@hotmail.com

Tuning: Standard for all songs EADGBe
        [although I'm not familiar with slide guitar
         so I don't know it's tuning(s)]

-----------------------------------------------------

Tracks:

1.  Dramamine 
2.  Breakthrough
3.  Custom Concern
4.  Might
5.  Lounge
6.  Beach Side Property
7.  She Ionizes & Atomizes
8.  Head South
9.  Dog Paddle
10. Novocain Stain
11. Tundra/Desert
12. Ohio
13. Exit Does Not Exist
14. Talking Shit About a Pretty Sunset
15. Make Everyone Happy/Mechanical Birds
16. Space Travel Is Boring

-----------------------------------------------------

LEGEND:

| /    slide up
| \    slide down
| h    hammer-on
| p    pull-off
| ~    vibrato
| +    natural harmonic
| x    dead note
| b    bend up
| r    release bend
| \n/  whammy bar dip, [n = pitch amount]
| /n\  inverted whammy bar dip (bend up)
| n__/ pre-dip whammy bar then release



***************************************************************************
                             1. DRAMAMINE
***************************************************************************

--------------INTRO--------------

harmonics:
e|-----------------------|
B|-----------------------|
G|--9+~~-7+~~-5+~~-5+~~--|
D|-----------------------|
A|-----------------------|
E|-----------------------|

variation:
e|-------------------------------|
B|---------------5+-------5+-----|
G|--9+~~-7+~~-5+----5+-5+----5+--|
D|-------------------------------|
A|-------------------------------|
E|-------------------------------|

variation (played live):
e|-------------------------------|
B|---------------5+--------------|
G|--9+~~-7+~~-5+----5+-----------|
D|---------------------5+--------|
A|------------------------5+-----|
E|---------------------------5+--|

Ensuing riff:
e|----------------|----------------|---------------|-------------|--
B|----------------|----------------|---------------|-------------|--
G|--9-7-9/-12-9-7-|----------------|-9-7-9/-12-9-7-|-9-7-0-7-5-0-|--
D|----------------|-9-7\-5/-7-9\-5-|---------------|-------------|--
A|----------------|----------------|---------------|-------------|--
E|----------------|----------------|---------------|-------------|--

  ----------------|----------------|---------------|-------------|--
  ----------------|----------------|---------------|-------------|--
  --9-7-9/-12-9-7-|----------------|-9-7-9/-12-9-7-|-9-7-0-7-5-0-|--
  ----------------|-9-7\-5/-7-9\-5-|---------------|-------------|--
  ----------------|----------------|---------------|-------------|--
  ----------------|----------------|---------------|-------------|--

  -----------------------|--
  -----------------------|--
  -----------------------|--
  --9-7-0-7-5----/9\5----|--
  -----------------------|--
  -----------------------|--

  ----------------|----------------|---------------|-------------|--
  ----------------|----------------|---------------|-------------|--
  --9-7-9/-12-9-7-|----------------|-9-7-9/-12-9-7-|-9-7-0-7-5-0-|--
  ----------------|-9-7\-5/-7-9\-5-|---------------|-------------|--
  ----------------|----------------|---------------|-------------|--
  ----------------|----------------|---------------|-------------|--

  ----------------|----------------|-----------------------|
  ----------------|----------------|-----------------------|
  --9-7-9/-12-9-7-|----------------|-9-7-9/-12-9-7/-12~~---|
  ----------------|-9-7\-5/-7-9\-5-|-----------------------|
  ----------------|----------------|-----------------------|
  ----------------|----------------|-----------------------|


--------------VERSE--------------

Guitar 1:
e|-----------------|
B|-----------------|
G|--9---7---9------|
D|--9---7---9------|
A|--7---5---7------|
E|-----------------|

Guitar 2:

A. Will play various parts from the intro riff,

B. And play this riff:

e|-----------------|
B|-----------------|
G|-----------------|
D|--5/-9-5-5/-9-5--|
A|-----------------|
E|-----------------|


--------------INTERLUDE--------------

e|----------------|----------------|---------------|-------------|--
B|----------------|----------------|---------------|-------------|--
G|--9-7-9/-12-9-7-|----------------|-9-7-9/-12-9-7-|-9-7-0-7-5-0-|--
D|----------------|-9-7\-5/-7-9\-5-|---------------|-------------|--
A|----------------|----------------|---------------|-------------|--
E|----------------|----------------|---------------|-------------|--

  ----------------|----------------|---------------|-------------|--
  ----------------|----------------|---------------|-------------|--
  --9-7-9/-12-9-7-|----------------|-9-7-9/-12-9-7-|-9-7-0-7-5-0-|--
  ----------------|-9-7\-5/-7-9\-5-|---------------|-------------|--
  ----------------|----------------|---------------|-------------|--
  ----------------|----------------|---------------|-------------|--

  -----------------------|--
  -----------------------|--
  -----------------------|--
  --9-7-0-7-5----/9\5----|--
  -----------------------|--
  -----------------------|--

  ----------------|----------------|-----------------------|
  ----------------|----------------|-----------------------|
  --9-7-9/-12-9-7-|----------------|-9-7-9/-12-9-7/-12~~---|
  ----------------|-9-7\-5/-7-9\-5-|-----------------------|
  ----------------|----------------|-----------------------|
  ----------------|----------------|-----------------------|


--------------REPEAT-VERSE--------------

--------------CHORUS--------------

Guitar 1:
e|-----------------------------------------------------|
B|-----------------------------------------------------|
G|--9--9-9-x-x-7--7-7-x-x-12--12-12-x-x-12--12-12-x-x--|
D|--9--9-9-x-x-7--7-7-x-x-12--12-12-x-x-12--12-12-x-x--|
A|--7--7-7-x-x-5--5-5-x-x-10--10-10-x-x-10--10-10-x-x--|
E|-----------------------------------------------------|

Guitar 2:
e|-------------------------|
B|-------------------------|
G|--9----------------------|
D|------9---5/-9-5-5/-9-5--|
A|-------------------------|
E|-------------------------|

Chord bending part:
e|------------------------------------------------------|
B|------------------------------------------------------|
G|--9b---9-7b---7-12b---12-12b---12-9b---9-7b---7-12----|
D|--9b---9-7b---7-12b---12-12b---12-9b---9-7b---7-12----|
A|--7b---7-5b---5-10b---10-10b---10-7b---7-5b---5-10----|
E|------------------------------------------------------|


--------------GUITAR-SOLO--------------

e|--7--5--------------------------------------------|--
B|---------8p7-8---7--------------------------------|--
G|-------------------7----7-5-4-5--/7\5-4--5p4p0----|--
D|--------------------------------------------------|--
A|--------------------------------------------------|--
E|--------------------------------------------------|--

  --7--5--------------------------------------------|--
  ---------8p7-8---7--------------------------------|--
  -------------------7----7-5-4-5---4-5-7--5p4p0----|--
  --------------------------------------------------|--
  --------------------------------------------------|--
  --------------------------------------------------|--

e|-7------7-----------------------------7------7--------------------|
B|---10-----10---8-8h10p8---8-8h10p8------10-----10---8-8h10p8------|
G|------9------9----------9----------9-------9------9----------9----|
D|------------------------------------------------------------------|
A|------------------------------------------------------------------|
E|------------------------------------------------------------------|

NOTE: the 8h10 is really quick


--------------SEGUE-TO-OUTRO--------------

quiet harmonics:
                       \.5/
e|-----------------------------------|
B|-----------------------------------|
G|--5+--5+--9+--9+--7+--7+-----------|
D|-----------------------------------|
A|-----------------------------------|
E|-----------------------------------|


--------------OUTRO--------------


harmonics:
e|-----------------------|
B|-----------------------|
G|--9+~~-7+~~-5+~~-5+~~--|
D|-----------------------|
A|-----------------------|
E|-----------------------|

Final Riff:
e|----------------|----------------|---------------|-------------|--
B|----------------|----------------|---------------|-------------|--
G|--9-7-9/-12-9-7-|----------------|-9-7-9/-12-9-7-|-9-7-0-7-5-0-|--
D|----------------|-9-7\-5/-7-9\-5-|---------------|-------------|--
A|----------------|----------------|---------------|-------------|--
E|----------------|----------------|---------------|-------------|--

  ----------------|----------------|---------------|-------------|--
  ----------------|----------------|---------------|-------------|--
  --9-7-9/-12-9-7-|----------------|-9-7-9/-12-9-7-|-9-7-0-7-5-0-|--
  ----------------|-9-7\-5/-7-9\-5-|---------------|-------------|--
  ----------------|----------------|---------------|-------------|--
  ----------------|----------------|---------------|-------------|--

  -----------------------|--
  -----------------------|--
  -----------------------|--
  --9-7-0-7-5----/9\5----|--
  -----------------------|--
  -----------------------|--

  --------------|-------------|-------------|-------------|--
  --------------|-------------|-------------|-------------|--
  --9-7-0-7-5-0-|-------------|-9-7-0-7-5-0-|-------------|--
  --------------|-9-7-0-7-5-0-|-------------|-9-7-0-7-5-0-|--
  --------------|-------------|-------------|-------------|--
  --------------|-------------|-------------|-------------|--

  --------------|-------------|------------------------------|
  --------------|-------------|------------------------------|
  --9-7-0-7-5-0-|-------------|------------------------------|
  --------------|-9-7-0-7-5-0-|--/9\5----/9\5----5-/9\5------|
  --------------|-------------|------------------------------|
  --------------|-------------|------------------------------|



***************************************************************************
                           2. BREAKTHROUGH
***************************************************************************


--------------INTRO/VERSE--------------

guitar 1 (completely palm-muted):

e|-------------------------|-------------------------|--
B|-------------------------|-------------------------|--
G|-7-----7-----------------|-------7-----2--0--2--0--|--
D|-7--7--7--7--5--7--5--7--|-4--7--7--7--0--0--0--0--|--
A|-5--7--5--7--5--7--5--7--|-4--7--5--7--x--x--x--x--|--
E|-5--5--5--5--3--5--3--5--|-2--5--5--5--3--3--3--3--|--

  -------------------------|-------------------------|--
  -------------------------|-------------------------|--
  -7-----7-----------------|-------7-----------7-----|--
  -7--7--7--7--5--7--5--4--|-4--7--7--7--4--7--7-----|--
  -5--7--5--7--5--7--5--4--|-4--7--5--7--4--7--5--7--|--
  -5--5--5--5--3--5--3--2--|-2--5--5--5--2--5--5--5--|--

  -------------------------|--------------------------|--
  -------------------------|--------------------------|--
  -7-----7-----------------|-7-----7-----0-2-0-2-0----|--
  -7--7--7--7--5--7--5--4--|-7--7--7--7--0-0-0-0-0--4-|--
  -5--7--5--7--5--7--5--4--|-5--7--5--7--x-x-x-x-x--4-|--
  -5--5--5--5--3--5--3--2--|-5--5--5--5--3-3-3-3-3--2-|--


--------------CHORUS--------------

guitar 1 chords:

    B5   D5  F#5   G5
e|--------------------|
B|--------------------|
G|--4----7------------|
D|--4----7----4----5--|
A|--2----5----4----5--|
E|------------2----3--|

guitar 2 (will be more prominent in 2nd chorus):

e|------------------------------------------------|
B|--------------------------------------5--7------|
G|-7-/11---11\9--9\7--7\6--6--7/-11-----------7---|
D|------------------------------------------------|
A|------------------------------------------------|
E|------------------------------------------------|


--------------INTERLUDE/VERSE--------------

guitar 1 only (completely palm-muted):

strum these chords:

    D5   D   F#5   G5
e|----------------------|
B|----------------------|
G|--7-------------------|
D|--7----4----4----5----|
A|--5----5----4----5----|
E|------------2----3----|



--------------GUITAR-SOLO/OUTRO--------------


e|------------------|----------------|-------------------------|--
B|------------------|----------------|-------------------------|--
G|------------------|----------------|-------------------------|--
D|---------7-5-4~---|---------7-5-4--|-4h5p4-4h5p4-4h5p4-4h5p4-|--
A|---5---5----------|---5---5--------|-------------------------|--
E|-7---7------------|-7---7----------|-------------------------|--

  ------------------|
  ------------------|
  ------------------|
  ------------------|
  -7-5-4-7-5-4-7-5--|
  ------------------| x 2

e|------------------------|-------------------------|--
B|------------------------|-------------------------|--
G|------------------------|-------------------------|--
D|-7--9--7--9--7--9/12~---|-7--9--7--9--5--7--5--7--|--
A|------------------------|-------------------------|--
E|------------------------|-------------------------|--

  ------------------------|----------------------------------|
  ------------------------|----------------------------------|
  ------------------------|----------------------------------|
  -7--9--7--9--7--9/12----|-10p9--7--5--7\--2-------2--------|
  ------------------------|-------------------2---2---2---2--|
  ------------------------|---------------------3-------3----|

(solo over lyrics):

e|-----------------------------|-----------------------------|--
B|-----------------------------|-----------------------------|--
G|-----------------------------|-----------------------------|--
D|-9--9-9-9-7-7--9-9-9-9/12~---|-9--7--5--7--2-------2---0---|--
A|-----------------------------|---------------2---2-----0---|--
E|-----------------------------|-----------------3-------0---|--

guitar 1 then returns to the 4 chorus chords:

(don't forget to pull isaac's signature move once or twice
in there!):

    /.5\
e|-----------|
B|---5+------|
G|---5+------|
D|---5+------|
A|---5+------|
E|-----------|


guitar 2 takes over with this riff:

e|-----------------------------|
B|-3-3-------------------------|
G|-----2-2-0-0----0-0-2-2-0-0--|
D|-----------------------------|
A|-----------------------------|
E|-----------------------------| x6

and then (still with guitar 2):

e|--------------|
B|-3-----3------|
G|---2-----2----|
D|-----4-----4--|
A|--------------|
E|--------------| repeat


--------------ENDING--------------

both guitars:

   /.5\    /.5\    /.5\
e|------------------------|
B|------------------------|
G|--4-------7-------------|
D|--4-------7-------6-----|
A|--2-------5-------4-----|
E|------------------------|




***************************************************************************
                          3. CUSTOM CONCERN
***************************************************************************


--------------INTRO--------------


This is the starting riff.  The only difference is he
hits those really high harmonics on the 2nd fret:

e|----------------------------------------------|--
B|----------------------------------------------|--
G|------0-------------2+------0-------------2+--|--
D|--------0h2-----0h2-----------0h2-----0h2-----|--
A|--3-3-------3-3---------3-3-------3-3---------|--
E|----------------------------------------------|--

  ------------------------------------------------------|--
  ------------------------------------------------------|--
  ------------------------------------------------------|--
  ------------------------------------------------------|--
  --------3--3-3-------3--3-3-------3--3-3-------3------|--
  --5--5---------5--5---------5--5---------5--5-----5\3-|--

  -------------------------------------------------------------------|--
  -------------------------------------------------------------------|--
  -------------------------------------------------------------------|--
  -------------------------------------------------------------------|--
  ----2h3p2---2h3p2---2h3p2---2h3p2---2h3p2---2h3p2---2h3p2---2h3p2--|--
  --3-------3-------3-------3-------3-------3-------3-------3--------|--

  ----------------------------------------------|
  ----------------------------------------------|
  ----------------------------------------------|
  ----------------------------------------------|
  -----0h3-3------0h3-3------0h3-3--3-/5--3--2--|
  -1-1--------1-1--------1-1--------------------|



For the rest of the intro start the previous riff with this:

e|----------------------------------------------|--
B|----------------------------------------------|--
G|------0-------------0-------0-------------0---|--
D|--------0h2-----0h2-----------0h2-----0h2-----|--
A|--3-3-------3-3---------3-3-------3-3---------|--
E|----------------------------------------------|--


Slide guitar riff:
e|-------------------------------------|
B|-------------------------------------|
G|-------------------------------------|
D|-------------------------------------|
A|----/12-------------/12---12\5---3---|
E|-------------------------------------|

Second Slide guitar riff:
e|------------|
B|------------|
G|--/9--12----|
D|------------|
A|------------|
E|------------|


--------------VERSE--------------


The same as the intro, except the first of the
4 lines is simplified to this:

e|-------------------------------------|--
B|-------------------------------------|--
G|------0-----------0-----0---------0--|--
D|--------2-------2---------2-----2----|--
A|--3-3------3-3------3-3-----3-3------|--
E|-------------------------------------|--


--------------TRANSITION-TO-OUTRO--------------


Repeat the Intro riff twice.


--------------OUTRO--------------

e|------------------|-----------------|------------------|-----------------|
B|------------------|-----------------|------------------|-----------------|
G|----------5h7-5-4-|-5p4-------------|------------------|-----------------|
D|---2-3-/5---------|-----5-3-2-3-2---|----------5h7-5-4-|-5p4-------------|
A|-3----------------|---------------5-|---2-3-/5---------|-----5-3-2-3-2---|
E|------------------|-----------------|-3----------------|---------------3-|

e|------------------------------------------------------|
B|------------------------------------------------------|
G|------------------------------------------------------|
D|------------------------------------------------------|
A|------------------------------------------------------|
E|-3--5--7--8-10--12--13--15\--1--3--5--7-8---7--5-3-0--|




***************************************************************************
                                4. MIGHT
***************************************************************************


--------------INTRO--------------


e|--------------------------|------------------------|--
B|--------------------------|------------------------|--
G|------0-----0-----0-----0-|------------------------|--
D|--------------------------|-----0-----0-----0----0-|--
A|--7-7---7-7---7-7---7-7---|-3-3---3-3---3-3---5----|--
E|--------------------------|------------------------|--

  --------------------------|------------------------------|
  --------------------------|------------------------------|
  ------0-----0-----0-----0-|------------------------------|
  --------------------------|-------------0----------------|
  --7-7---7-7---7-7---7-7---|-3--3-3-3--3---2--2-2---------|
  --------------------------|----------------------3--3-3--|


--------------CHORUS--------------


e|------------------------------------------------------------|--
B|------------------------------------------------------------|--
G|------------------------------------------------------------|--
D|-7--7-7-10--10-10-9--9-9-5--5-5-----------------------------|--
A|-7--7-7-10--10-10-9--9-9-5--5-5-----------------------------|--
E|-5--5-5-8---8--8--7--7-7-3--3-3-1--3--1--3-1-1-0-0--0--0-0--|--

  -------------------------------------------------|
  -------------------------------------------------|
  -------------------------------------------------|
  -7--7-7-10--10-10-9--9-9-5--5-5------------------|
  -7--7-7-10--10-10-9--9-9-5--5-5------------------|
  -5--5-5-8---8--8--7--7-7-3--3-3-1-3---1-3---1-0--|


--------------VERSE(broke-every-bone...)--------------


e|---------------------------------|
B|---------------------------------|
G|-7--7-7-7--7-7-7--7-7-7--7-7-5---|
D|-7--7-7-7--7-7-7--7-7-7--7-7-5---|
A|-5--5-5-5--5-5-5--5-5-5--5-5-3---|
E|---------------------------------|


--------------OUTRO--------------

e|-----------------------------------------------|--
B|-----------------------------------------------|--
G|----0----0----0------0-----------------0-------|--
D|---------------------------0-----0----------0--|--
A|-7----7----7----7--7---3-3---3-3---3-3---5-----|--
E|-----------------------------------------------|--

  ---------------------------------------------------|
  ---------------------------------------------------|
  -----0-----0-----0-----0---------------------------|
  -----------------------------0-----0---------------|
  -7-7---7-7---7-7---7-7---3-3---3-3---2--2-2--------|
  --------------------------------------------3-3----|




***************************************************************************
                               5. LOUNGE
***************************************************************************


--------------INTRO/VERSE--------------

The riffs are the same, except the first octave chords are
lengthened to some degree.  The endings are always the same
though.  Here is the main skeleton/intro riff:

(palm mute)
e|-----------------------|-----------------------|
B|-----------------------|-----------------------|
G|-----------------------|-----------------------|
D|--8--x-x-8\-4-5-7--5-4-|-8--x-x-8\-7-5-4--5-7--|
A|--x--x-x-x-------------|-x--x-x-x--------------|
E|--6--x-x-6-------------|-6--x-x-6--------------|


--------------INTERLUDE--------------

e|------------------------|------------------------|
B|------------------------|------------------------|
G|------------------------|------------------------|
D|--7h8-7h8-7h8-----5+----|-7h8-7h8-7h8-----7+-----|
A|---------------5+----4+-|--------------7+----7+--|
E|------------------------|------------------------| x3


--------------VERSE--------------

(palm mute)
e|----------------------------------------------------|--
B|----------------------------------------------------|--
G|----------------------------------------------------|--
D|-8--x-x-8--x-8--x-----8--x-x-8--x-x-8\--4-5-7--5-4--|--
A|-x--x-x-x--x-x--x-x-x-x--x-x-x--x-x-x---------------|--
E|-6--x-x-6--x-6--x-x-x-6--x-x-6--x-x-6---------------|--

  ----------------------------------------------------|
  ----------------------------------------------------|
  ----------------------------------------------------|
  -8--x-x-8--x-8--x-----8--x-x-8--x-x-8\--7-5-4--5-7--|
  -x--x-x-x--x-x--x-x-x-x--x-x-x--x-x-x---------------|
  -6--x-x-6--x-6--x-x-x-6--x-x-6--x-x-6---------------| x2


--------------CHORUS--------------

chords used:


e|--13-------------------|
B|--x--------------------|
G|--15---------12---11---|
D|--15---------12---11---|
A|--13---------10---9----|
E|-----------------------|

It's quite easy to follow along by ear playing these chords.


--------------BRIDGE--------------

Repeat the verse riff.

And then this riff:

e|-------------------|
B|-------------------|
G|-------------------|
D|-7h8-7h8-7h8-------|
A|-------------------|
E|-------------------| x 4


--------------OUTRO-JAM--------------


RIff 1:

e|-----------------|-----------------|-----------------|-----------------|
B|-----------------|-----------------|-----------------|-----------------|
G|-7h8-------------|-7h8-------------|-7h8-------------|-7h8-----7-8-10--|
D|-----7h8-4h5-7h8-|-----7h8-4h5-----|-----7h8-4h5-7h8-|-----7h8---------|
A|-----------------|-------------4h5-|-----------------|-----------------|
E|-----------------|-----------------|-----------------|-----------------|

Riff 2:

e|-------------------------|-----------------|--
e|-------------------------|-----------------|--
B|-10-10-10-10-10-10-10-10-|-8-8-8-8-7-7-8-8-|--
D|-------------------------|-----------------|--
A|-------------------------|-----------------|--
E|-------------------------|-----------------|--

  -------------------------|-----------------|
  -------------------------|-----------------|
  -10-10-10-10-10-10-10-10-|-8-8-8-8-7-7-----|
  -------------------------|-------------8-8-|
  -------------------------|-----------------|
  -------------------------|-----------------|

RIff 2 variation:

e|--------------------------|-------------------|--
e|-------------------10b----|-------------10h11-|--
B|-10-10-10-10-10-10-----10-|-8-8-8-8-7-7-------|--
D|--------------------------|-------------------|--
A|--------------------------|-------------------|--
E|--------------------------|-------------------|--

  --------------------------|-----------------|
  -------------------10b----|-----------------|
  -10-10-10-10-10-10-----10-|-8-8-8-8-7-7-----|
  --------------------------|-------------8-8-|
  --------------------------|-----------------|
  --------------------------|-----------------|

Riff 3:

e|---------------------|-------------------------|--
B|---------------------|----10-11-13-15-13-11-10-|--
G|-10-10-10-10-8-8-7h8-|-10----------------------|--
D|---------------------|-------------------------|--
A|---------------------|-------------------------|--
E|---------------------|-------------------------|--

  ----------------------|-------------------------|---------------------|
  ----10-11-13-15-11-10-|----10-11-13-15-13-11-10-|-10h11---------------|
  -10-------------------|-10----------------------|-------9h10-7h8-10---|
  ----------------------|-------------------------|---------------------|
  ----------------------|-------------------------|---------------------|
  ----------------------|-------------------------|---------------------|

Riff 4:

e|-------------------------|-------------------------|
B|----11-------11-------11-|----10-------10-------10-|
G|-10----10-10----10-10----|-10----10-10----10-10----|
D|-------------------------|-------------------------|
A|-------------------------|-------------------------|
E|-------------------------|-------------------------|




***************************************************************************
                        6. BEACH SIDE PROPERTY
***************************************************************************


--------------INTRO/VERSE--------------


riff played throughout (bar 8th fret):
e|---------------------------------|---------------------------------------|
B|---------------------------------|---------------------------------------|
G|--------------8------------------|--------------------8--8---8--8--8--8--|
D|--------------8----------8-------|---------8----------8--8---8--8--8--8--|
A|-10--10--8--x-8--10--10--10--x-x-|-10--10--10--10-10--10-10--10-10-10-10-|
E|-11--11--11-x-11-11--11--11--x-x-|-11--11--11--11-11--11-11--11-11-11-11-|


riff ending 1:
e|--------------------------------------|--
B|--------------------------------------|--
G|-12--12--12--12-12--12-12--12-12-x-15-|--
D|-x---x---x---x--x---x--x---x--x--x-x--|--
A|-10--10--10--10-10--10-10--10-10-x-13-|--
E|--------------------------------------|--

  -------------------------------------|
  -------------------------------------|
  -15--15--15--15-15--15-15\13-13--12--|
  -x---x---x---x--x---x--x-----x---x---|
  -13--13--13--13-13--13-13\11-11--10--|
  -------------------------------------|

riff ending 2:
e|-------------------------|------------------------|
B|-------------------------|------------------------|
G|-------------------------|------------------------|
D|-------------------------|-13---------------------|
A|-10/13-10-10/13-10-10/13-|----13------------------|
E|-------------------------|-------16-15-15-15-15\--|


riff ending 3:

  /1\     /1\   /1\
e|----------------------------------------------------|
B|----------------------------------------------------|
G|-12-----12-----12----12-12--x-15--15-15\13--13--12--|
D|-x------x------x-----x--x---x-x---x--x------x---x---|
A|-10-----10-----10----10-10--x-13--13-13\11--11--10--|
E|----------------------------------------------------|

riff ending 4:
e|------------------------------------------------------------|
B|------------------------------------------------------------|
G|--12br-13br-12br-12br---15--15--15--15-15--15-15\13-13--12--|
D|------------------------x---x---x---x--x---x--x-----x---x---|
A|------------------------13--13--13--13-13--13-13\11-11--10--|
E|------------------------------------------------------------|


--------------BREAKDOWN--------------

first the bass plays a little jig, then this
little riff comes in:

e|---------------------|--------------------------------------|
B|--8------------------|--------------8-----------------------|
G|--7--7--5-4--5p4-----|------4--5/7-----5p7-4h5-4h5-4h5-4----|
D|-----------------5---|---5-------------------------------5--|
A|---------------------|--------------------------------------|
E|---------------------|--------------------------------------|


--------------INTERLUDE/VERSE--------------

e|---------------------------------|---------------------------------|--
B|---------------------------------|---------------------------------|--
G|---7-----7-----7-----7-----7-----|---2-----2-----2br---2-----2-----|--
D|-----5-----5-----5-----5-----5---|-----0-----0-----------0-----0---|--
A|-7-----7-----7-----7-----7-----7-|-2-----2-----2-----------2-----2-|--
E|---------------------------------|---------------------------------|--

  -0---------------------------------------|
  -0---------------------------------------|
  -2---2--2--2--2---2--2--2--2-2/4---------|
  -2---2--2--2--2---2--2--2--2-2/4----5----|
  -0---0--0--0--0---0--0--0--0-0-2----5----|
  ------------------------------------3----|


--------------BRIDGE--------------


e|-----------------|-----------------|----------------|
B|-----------------|-----------------|----------------|
G|-----------------|-----------------|----------------|
D|-----------------|-----------------|----------------|
A|-----------------|-----------------|----------------|
E|-1-1-1-1-1-1-1-1-|-3-3-3-3-3-3-3-3-|-5-b-r----------|


--------------INTERLUDE--------------

guitar 1:

e|------------------|----------------------------|
B|------------------|----------------------------|
G|------------------|----------------------------|
D|-----2------------|-----4----2-2---------------|
A|---3---3---3-5br--|---5---5--------3-3-3-2-0---|
E|-1-------0--------|-3------------3-------------| x 1

guitar 2:

play this repeatedly behind the above riff

e|----------|
B|----------|
G|----------|
D|--2br-----|
A|----------|
E|----------| x 1


--------------VERSE-(goin'-union...)--------------

guitar 1:

e|--------------------------|
B|--------------------------|
G|--------------------------|
D|-----2-------0-------4----|
A|---3---3---3---3---5---5--|
E|-1-------0-------3--------|

guitar 2:

again play this repeatedly behind the above riff

e|----------|
B|----------|
G|----------|
D|--2br-----|
A|----------|
E|----------|

transition:

e|-------------------|
B|-------------------|
G|-------------------|
D|--2-2-2------------|
A|--------3-3-3-2-0--|
E|-------------------|


--------------JAM--------------

only chord used by guitar 1:

     F
e|-------|
B|---1---|
G|---2---|
D|---3---|
A|---3---|
E|---1---|


guitar 2:

first harmonics heard:
e|-----------------|
B|--7+-------------|
G|--7+---5+--------|
D|------------5+---|
A|-----------------|
E|-----------------|

second harmonics heard:
e|-----------------|
B|-----------------|
G|--5+--------5+---|
D|-------5+--------|
A|-----------------|
E|-----------------|

third harmonics heard:
e|------------------|
B|-------5+---5+~~--|
G|--5+--------5+~~--|
D|------------5+~~--|
A|------------5+~~--|
E|------------------|

riff played next by guitar 2:

e|-----------------|----------------|
B|-----------------|----------------|
G|-----------------|----------------|
D|-3-2-3-5-3-2---2-|-3-5-3-2--------|
A|-------------3---|---------3------|
E|-----------------|----------------|

variation on that riff:
e|-----------------|----------------|
B|-----------------|----------------|
G|-----------------|----------------|
D|-3-2-----3-2-----|-----3---2~~----|
A|-----3-2-----3-2-|-3-0------------|
E|-----------------|----------------|


--------------REPEAT-VERSE--------------

--------------OUTRO--------------


both guitars gradually fade into this riff:

e|------------------------------|
B|------------------------------|
G|------------------------------|
D|--2h3-5--2h3-5----------------|
A|----------------2h3-5--2h3-5--|
E|------------------------------|




***************************************************************************
                       7. SHE IONIZES & ATOMIZES
***************************************************************************


--------------INTRO--------------


harmonics played throughout song:

    \  .5  /
e|--------------------|
B|---7+---------------|
G|---7+---------------|
D|---7+---------------|
A|--------------------|
E|--------------------|


--------------VERSE--------------


guitar 2 riff played until outro:

e|-------------------0-|-1-3-/5-3--1---------|
B|---------------------|---------------------|
G|-2h3-3-3-2h3-2-2-2---|-------------2-3-----|
D|---------------------|---------------------|
A|---------------------|---------------------|
E|---------------------|---------------------|


--------------OUTRO--------------

Riff 1:

e|-----------------------|-------------------|-------------------|--
B|-----------------------|-------------------|-------------------|--
G|--14/15--15--15--15-15-|-14--14--14--14/19-|-19--19--19--19-19-|--
D|--x--x---x---x---x--x--|-x---x---x---x--x--|-x---x---x---x--x--|--
A|--12/13--13--13--13-13-|-12--12--12--12/17-|-17--17--17--17-17-|--
E|-----------------------|-------------------|-------------------|--

  ----------------------|
  ----------------------|
  -17-17-17--17--17-17--|
  -x--x--x---x---x--x---|
  -15-15-15--15--15-15--|
  ----------------------|

Riff 2:

e|----------------------------------------------|
B|----------------------------------------------|
G|----------------------------------------------|
D|--7/8/10---7/8/10---7/8/10--------------------|
A|---------8--------8--------8--10-10-10h12-10--|
E|----------------------------------------------|

Guitar 1 harmonics behind this:

                   0.5__/
e|-------------------------|
B|--7+----7+----7+---------|
G|-----7+----7+----7+------|
D|-------------------------|
A|-------------------------|
E|-------------------------|




***************************************************************************
                            8. HEAD SOUTH
***************************************************************************


--------------INTRO--------------


   /.5\  /.5\   /.5\  /.5\   /.5\  /.5\   
e|----------------------------3--------------------|
B|--1-----1-----0-------------1-----1-----0--------|
G|--0-----2-----0-------------0-----2-----0--------|
D|--2-----3-----0-------------2-----3-----0--------|
A|--3-----3-----x-------------3-----3-----x--------|
E|--0-----------3-------------------------3--------| x2


--------------VERSE--------------

Guitar 1 and 2 riff:

e|------------------------|
B|------------------------|
G|------------------------|
D|----5-0-2---1-0---------|
A|--7-------3-----3---2---|
E|------------------3-----|

Guitar 2 sometimes plays this:

e|---------------------------------|
B|---------------------------------|
G|---------------------------------|
D|----5-0-2---1-0------------------|
A|--7-------3-----3---2---9-9-7-7--|
E|------------------3--------------|

The last 3 times play this:

e|-------------------------------------|--
B|-------------------------------------|--
G|-------------------------------------|--
D|----5-0-2---1-0----------------------|--
A|--7-------3-----3---2/---12--12-10-9-|--
E|------------------3------------------|--

  ---------------------------------------|--
  ---------------------------------------|--
  ---------------------------------------|--
  ---5p0-0-------1-0---------------------|--
  -7-------7p0-3-----3---2/---9---10-12\-|--
  ---------------------3-----------------|--

  ---------------------------------------|--
  ---------------------------------------|--
  ---------------------------------------|--
  ----5p0-0-2---1-0----------------------|--
  --7---------3-----3---2/---12--12-10-9-|--
  --------------------3------------------|--


--------------CHORUS--------------


e|---------------------------------------------------------|--
B|---------------------------------------------------------|--
G|--9--9--11--12-x-x-14--12--x-x-5--5--7--5--x-x-7--5--x-x-|--
D|--x--x--x---x--x-x-x---x---x-x-x--x--x--x--x-x-x--x--x-x-|--
A|--7--7--9---10-x-x-12--10--x-x-3--3--5--3--x-x-5--3--x-x-|--
E|---------------------------------------------------------|--

  -----------------|-------------------|
  -----------------|-------------------|
  -----------------|-------------------|
  -----------------|---------------x-x-|
  -----------------|---------------x-x-|
  -3-3-3-3-3-3-3-3-|-3-3-3-3-3-3-3-x-x-|


Variation (see chord marked with *):

                     * 
e|---------------------------------------------------------|--
B|---------------------------------------------------------|--
G|--9--9--11--12-x-x-11--12--x-x-5--5--7--5--x-x-7--5--x-x-|--
D|--x--x--x---x--x-x-x---x---x-x-x--x--x--x--x-x-x--x--x-x-|--
A|--7--7--9---10-x-x-9---10--x-x-3--3--5--3--x-x-5--3--x-x-|--
E|---------------------------------------------------------|--

  -----------------|-------------------|
  -----------------|-------------------|
  -----------------|-------------------|
  -----------------|---------------x-x-|
  -----------------|---------------x-x-|
  -3-3-3-3-3-3-3-3-|-3-3-3-3-3-3-3-x-x-|


--------------REPEAT-VERSE-AND-CHORUS--------------


--------------OUTRO-JAM--------------

Riff 1:

guitar 1 jam with these 3 chords:

e|---------------------------|
B|-----------------3---------|
G|---11-----7------0---------|
D|---x------x------0---------|
A|---9------5------x---------|
E|-----------------3---------| x1

guitar 2 with these chords:

e|--------------------------|
B|--------------------------|
G|--------------------------|
D|---9------5------5--------|
A|---x------x------x--------|
E|---7------3------3--------| x1


Riff 2:

guitar 1 same chords:

e|---------------------------|
B|-----------------3---------|
G|---11-----7------0---------|
D|---x------x------0---------|
A|---9------5------x---------|
E|-----------------3---------| x1

guitar 2 with these new chords:

e|---------------------------|
B|---------------------------|
G|----------7------9-----7---|
D|---9------x------x-----x---|
A|---x------5------7-----5---|
E|---7-----------------------| x1


Riff 3:

jam with these chords:

e|---------------------------------------|
B|---------------------------------------|
G|--16-----------------------------------|
D|--x--------12-----14-----12-----10-9---|
A|--14-------x------x------x------x--x---|
E|-----------10-----12-----10-----8--7---| x2


Riff 4:

          \1/          \1/
e|--------------|-------------|-----------|--------------------|
B|--------------|-------------|-----------|--------------------|
G|--16----19----|-16----19----|-16--------|--------------------|
D|--x-----x-----|-x-----x-----|-x---------|--14----12----10-9--|
A|--14----17----|-14----17----|-14--------|--x-----x-----x--x--|
E|--------------|-------------|-----------|--12----10----8--7--| x2

Final Riff:

e|------------------------|-------------------------|
B|------------------------|-------------------------|
G|-9--7--5--4--9--7--5--4-|-9--7--5--4--5--4--5--4--|
D|-x--x--x--x--x--x--x--x-|-x--x--x--x--x--x--x--x--|
A|-7--5--3--2--7--5--3--2-|-7--5--3--2--3--2--3--2--|
E|------------------------|-------------------------|




***************************************************************************
                            9. DOG PADDLE
***************************************************************************


Riff played for whole song:

e|-------------------------|---------------------------|
B|-------------------------|---------------------------|
G|-9--9--9--9-9-9/12--12---|-9--9--9--9/12--12--11-11--|
D|-x--x--x--x-x-x/x---x----|-x--x--x--x-----x---x--x---|
A|-7--7--7--7-7-7/10--10---|-7--7--7--7/10--10--9--9---|
E|-------------------------|---------------------------|




***************************************************************************
                         10. NOVOCAIN STAIN
***************************************************************************


--------------INTRO--------------

(4 chords)

    D5   Em   D    C5
e|---------------------|
B|---------------------|
G|---------------------|
D|--7----5----4----5---|
A|--5----7----5----3---|
E|---------------------|



--------------VERSE--------------

(2 chords)

     G5    C5
e|-------------|
B|-------------|
G|---------5---|
D|---5-----5---|
A|---5-----3---|
E|---3---------|


--------------INTERLUDE/VERSE--------------

main riff:

e|------------------------|-------------------------|
B|------------------------|-------------------------|
G|------------------------|-------------------------|
D|-----0----0-----0-----0-|----0-----0--------------|
A|-10----10----9-----9----|-7-----7-----------------|
E|------------------------|-------------8-8-8\7--8--|

transition riff:

e|------------------------------------------------------|
B|------------------------------------------------------|
G|-------12br-------11br--------9br-----5--5--x-4---5---|
D|------------------------------------x-x--x--x-x---x---|
A|-10-10--------9-9-----9---7-7-------x-3--3--x-2---3---|
E|------------------------------------------------------|


--------------OUTRO--------------


jam with these chords for a while:

e|-------------------------|
B|-------------------------|
G|--12---11---9---5---4----|
D|--x----x----x---x---x----|
A|--10---9----7---3---2----|
E|-------------------------|


final riff:

e|----------------------|------------------------|--
B|----------------------|------------------------|--
G|----------------------|-----------12+~~--------|--
D|----------------------|------------------10-9--|--
A|-9-10-12-9-10-12-9-10-|-9-10-12-9--------------|--
E|----------------------|------------------------|--

  ----------------------|----------------------------|--
  ----------------------|----------------------------|--
  ----------------------|----------------------------|--
  ----------------------|-----------12---10~~------0-|--
  -9-10-12-9-10-12-9-10-|-9-10-12-9-----------10~~---|--
  ----------------------|----------------------------|--

  ----------------------|-----------------------|--
  ----------------------|-----------------------|--
  ----------------------|-----------12----------|--
  ----------------------|--------------12-10-9--|--
  -9-10-12-9-10-12-9-10-|-9-10-12-9-------------|--
  ----------------------|-----------------------|--

  --------------------------------------|------------------|
  --------------------------------------|------------------|
  --------------------------------------|------------------|
  --------------------------------------|-12p10-9-10-9-----|
  -9-10-12-9h10-12-9h10-12-9h10-12-9h10-|--------------10--|
  --------------------------------------|------------------|

The rest of the outro is just repeating parts from that riff.



***************************************************************************
                           11. TUNDRA/DESERT
***************************************************************************

--------------INTRO--------------

e|--------------------------|
B|-------------\3----/8-----|
G|--------------------------|
D|--5---/9-----\5----/10----|
A|--5---/9-----\5----/10----|
E|--3---/7-----\3----/8-----|


--------------VERSE--------------

e|--------------------------|
B|--3---/7-----\3----/8-----|
G|--------------------------|
D|--5---/9-----\5----/10----|
A|--5---/9-----\5----/10----|
E|--3---/7-----\3----/8-----|


--------------FREAK-OUT-JAM--------------

guitar 1:

strike the harmonics then bend them with the whammy bar:

e|-----------------|-----------------|-----------------|-----------------|
B|-5+br----5+br----|------5+---------|-5+br----5+br----|-----------------|
G|------7+------7+-|-5+br----5+br-br-|------7+------7+-|-5+--------------|
D|-----------------|-----------------|-----------------|-----5+----------|
A|-----------------|-----------------|-----------------|---------5+------|
E|-----------------|-----------------|-----------------|-------------5+--|

guitar 2:

just hit the G5 every time guitar 1 hits the 2nd
harmonic of the bars above:

e|----------------------|
B|----------------------|
G|----------------------|
D|--5------5------5-----|
A|--5------5------5-----|
E|--3------3------3-----|


--------------GUITAR-SOLO--------------

e|----------------------------------------------------|--
B|----------------------------------------------------|--
G|-7-7-7--7-7--7-7--8-8-10-10-10--10-10--10-10--10--8-|--
D|----------------------------------------------------|--
A|----------------------------------------------------|--
E|----------------------------------------------------|--

  ---------------------------------------------------|--
  ---------------------------------------------------|--
  -7-7-7--7-7--7-7--8-8-10-10-10--10-10--10-10--8--7-|--
  ---------------------------------------------------|--
  ---------------------------------------------------|--
  ---------------------------------------------------|--

  -----------------------------------------------|--
  -----------------------------------10--8--7--0-|--
  -7-7-7--7-7--7-7--8-8-10-10-10-10------------0-|--
  ---------------------------------------------0-|--
  -----------------------------------------------|--
  -----------------------------------------------|--

  ----------------------------------------------------|--
  -7-7-7--7-7--7-7--7-8-10-10-10--10-10--10-10-10-10--|--
  ----------------------------------------------------|--
  ----------------------------------------------------|--
  ----------------------------------------------------|--
  ----------------------------------------------------|--

  -----------------|-------------------|--
  -7-7-7-7-7-7-7-8-|-10-8-7-8-7---7-8--|--
  -----------------|------------9------|--
  -----------------|-------------------|--
  -----------------|-------------------|--
  -----------------|-------------------|--

  ----------------------|-----------------|
  ---7-7--7-7--7-7-8-10-|-10-10-10-8-7-0--|
  -9--------------------|-----------------|
  ----------------------|-----------------|
  ----------------------|-----------------|
  ----------------------|-----------------|


--------------REPEAT-HARMONICS/GUITAR-SOLO--------------


--------------OUTRO--------------

Guitar 2 really jams that G5 chord.

Guitar 1 plays this riff right near the end:

e|------------------|
B|-7~~~--8~~~~--9b--|
G|------------------|
D|------------------|
A|------------------|
E|------------------|

(they aren't really vibrato, just slow bends using your finger)



***************************************************************************
                               12. OHIO
***************************************************************************


--------------INTRO/CHORUS--------------


guitar 1 (palm mute the lower notes):

riff 1:
e|--------------------------|
B|--------7-----------------|
G|--------x--x--------5--0--|
D|--x--x-----x--x--x--x-----|
A|--7--7-----x--5--5--------|
E|--------------------------|

riff 1 variation 1:
e|--------------------------|
B|--------------------------|
G|--------7--x--------4--x--|
D|--x--x--x--x--x--x--x--x--|
A|--7--7-----x--5--5-----x--|
E|--------------------------|

riff 1 variation 2:
e|--------------------------|
B|--------7-----------------|
G|--4--4-----4--4--4--5--4--|
D|--------------------------|
A|--------------------------|
E|--------------------------|


guitar 2 (random little fills):

e|---------------------|
B|--5-5-5-3--3---------|
G|-------------5-4~~---|
D|---------------------|
A|---------------------|
E|---------------------|


--------------INTERLUDE/VERSE--------------

guitar 1 (palm mute on bass notes):

e|------------------|-----------------|-----------------|------------------|
B|------------------|-----------------|-----------------|-----------0------|
G|------5-----5-----|-----4-----4-----|-----------------|-----------0------|
D|--x-x-5-x-x-5-x-x-|-x-x-4-x-x-4-x---|-----5-----5-----|-----7-----0------|
A|--7-7---7-7---7-6-|-5-5---5-5---5-0-|-x-x-5-x-x-5-x-x-|-x-x-7-x-x--------|
E|------------------|-----------------|-7-7---7-7---7-7-|-8-8---8-8--------|


guitar 2:

e|--------------------------------------------------|
B|--------------------------------------------------|
G|--12+~~-----7+~~----------------------------------|
D|--12+~~-----7+~~------12\10-10\9-9\5--------9-----|
A|-------------------------------------7------------|
E|--------------------------------------------------|


--------------NEXT-VERSE--------------

guitar 1:

e|-----------------|-----------------|-----------------|------------------|
B|-----------------|-----------------|-----------------|------------------|
G|---5-----5-----5-|---4-----4-----4-|---0-----0-----0-|---2-----2-----2--|
D|-----5-----5-----|-----4-----4-----|-----0-----0-----|-----2-----2------|
A|-7-----7-----7---|-5-----5-----5---|-2-----2-----2---|-3-----3-----3----|
E|-----------------|-----------------|-----------------|------------------|

guitar 2 (palm mute completely)

e|----------------------|----------------------|-----------------------|--
B|----------------------|----------------------|-----------------------|--
G|----------------------|----------------------|-----------------------|--
D|----------------------|-4-4-4-----4-----4----|-----------------------|--
A|-7-7-7--5--7--5--7--5-|--------5-----5-----5-|-7-7-7--5--7--5--7--5--|--
E|----------------------|----------------------|-----------------------|--

  ---------------------|
  ---------------------|
  ---------------------|
  -7-7-7--5--7--5--7---|
  ---------------------|
  ---------------------|

--------------REPEAT-BOTH-VERSES--------------


--------------BRIDGE--------------


guitar 1 (palm mute on bass notes):

strike these notes hard.

e|------------------|-----------------|-----------------|------------------|
B|------------------|-----------------|-----------------|------------------|
G|------5-----5-----|-----4-----4-----|-----------------|------------0-----|
D|--x-x-5-----5-----|-x-x-4-----4-----|-----5-----5-----|-----7------5-----|
A|--7-7-------------|-5-5-------------|-x-x-5-----5-----|-x-x-7------5-----|
E|------------------|-----------------|-7-7-------------|-8-8--------------|


--------------CHORUS/OUTRO--------------


guitar 1: repeat the riff all the way back from the intro


guitar 2: after a few times of guitar 1 playing, plays this:

e|--------------------|
B|--------------------|
G|--12~~--------------|
D|-------10~~-10~~-10-|
A|--------------------|
E|--------------------|


guitar 1 last outro riff (with harmonics on the end):

e|-----------------------|---------------------|----------------------|--
B|-----7---------5+br----|-----7---------------|-----7----------------|--
G|-----x-x-x-----5+br----|-----x-x-x-----------|-----x-x-x-----4+-----|--
D|-x-x---x-x-x-x-5+br----|-x-x---x-x-x-x-------|-x-x---x-x-x-x-4+-----|--
A|-7-7---x-x-5-5---------|-7-7---x-x-5-5-4+----|-7-7---x-x-5-5-4+-----|--
E|-----------------------|---------------------|----------------------|--

  -----------------------|---------------------|----------------------|--
  -----7---------5+br----|-----7---------------|-----7----------------|--
  -----x-x-x-----5+br----|-----x-x-x-----------|-----x-x-x------------|--
  -x-x---x-x-x-x-5+br----|-x-x---x-x-x-x-4+----|-x-x---x-x-x-x-5+br---|--
  -7-7---x-x-5-5-5+br----|-7-7---x-x-5-5-4+----|-7-7---x-x-5-5-5+br---|--
  -----------------------|---------------------|----------------------|--

  -----------------------|---------------------|------------------------|
  -----7-----------------|-----7---------------|-----7------------------|
  -----x-x-x-------------|-----x-x-x-----------|-----x-x-x-----4+-------|
  -x-x---x-x-x-x-4+------|-x-x---x-x-x-x-5+br--|-x-x---x-x-x-x-4+-------|
  -7-7---x-x-5-5-4+------|-7-7---x-x-5-5-5+br--|-7-7---x-x-5-5----------|
  -----------------------|---------------------|------------------------|




***************************************************************************
                        13. EXIT DOES NOT EXIST
***************************************************************************


--------------INTRO/VERSE--------------


main riff:
e|----------------------------|
B|----------------------------|
G|----------------------------|
D|----0-----------0--5-0------|
A|----------------------------|
E|-7-----3--5--7---------3-5--|


variation1:
e|-----------------------------|
B|-----------------------------|
G|-----------------------------|
D|----0-----------0--5-7/9-7---|
A|-----------------------------|
E|-7-----3--5--7---------------|


variation 2:
e|-----------------------------|
B|-----------------------------|
G|-----------------------------|
D|----0-----------0--9\7-5-0---|
A|-----------------------------|
E|-7-----3--5--7---------------|


final variation:
e|---------------------------------|
B|---------------------------------|
G|---------------------------------|
D|-----0-0-----------0-0-5-7/9-7---|
A|---5-------------5---------------|
E|-7-------3--5--7-----------------|


--------------JAM-INTERLUDE--------------

first part:
e|---------------------------|----------------------------|
B|---------------------------|----------------------------|
G|-11--11--11--11-11-11---9--|-11--11--11--11-11-11---7---|
D|-x---x---x---x--x--x----x--|-x---x---x---x--x--x----x---|
A|-9---9---9---9--9--9----7--|-9---9---9---9--9--9----5---|
E|---------------------------|----------------------------| x2


second part of jam:

riff variation 1:
e|-----------------------------------------------------------|
B|-----------------------------------------------------------|
G|-11--11--11--11-11--11-11--11--11-7--7--7--7-7--7-7/9--9/--|
D|-x---x---x---x--x---x--x---x---x--x--x--x--x-x--x-x-x--x---|
A|-9---9---9---9--9---9--9---9---9--5--5--5--5-5--5-5/7--7/--|
E|-----------------------------------------------------------|

riff variation 2:
e|--------------------------------------------------------------|
B|--------------------------------------------------------------|
G|-11--11--11--11-11--11-11--11--11-7--7--7--7-7--7-7--7--7-7---|
D|-x---x---x---x--x---x--x---x---x--x--x--x--x-x--x-x--x--x-x---|
A|-9---9---9---9--9---9--9---9---9--5--5--5--5-5--5-5--5--5-5---|
E|--------------------------------------------------------------|

riff variation 3:
e|--------------------------------------------------------------|
B|--------------------------------------------------------------|
G|-11--11--11--11-11--11-11--11--11-7--6--7--6-7--6-7--9--9-9---|
D|-x---x---x---x--x---x--x---x---x--x--x--x--x-x--x-x--x--x-x---|
A|-9---9---9---9--9---9--9---9---9--5--4--5--4-5--4-5--7--7-7---|
E|--------------------------------------------------------------|


--------------GUITAR-SOLO--------------


e|-----------------------------------------------------|
B|-----------------------------------------------14~~--|
G|-----14--16--14------14--16--14------14--16--14------|
D|-16------------16--16------------16------------------|
A|-----------------------------------------------------|
E|-----------------------------------------------------| x3

Ensuing riff:

e|----------------------------|--------------------------------|
B|-14/22-22-22-22-22-22-22-22-|-22-22-22-22-22-22-22-22\14~~~--|
G|----------------------------|--------------------------------|
D|----------------------------|--------------------------------|
A|----------------------------|--------------------------------|
E|----------------------------|--------------------------------|


--------------RETURN-TO-JAM-AND-INTRO--------------


--------------OUTRO-GUITAR-SOLO--------------


It is the same as the first guitar solo, but then there
is one more variation right near the end:

e|---------------------------------|
B|---------------------------------|
G|-9--9--9--9/16\14-14--14--14-14--|
D|---------------------------------|
A|---------------------------------|
E|---------------------------------| x3

Ending of that riff:
e|----------------------------------|
B|----------------------------------|
G|-18p16-16--16p14-14--/16--16--18--|
D|----------------------------------|
A|----------------------------------|
E|----------------------------------|



***************************************************************************
                 14. TALKING SHIT ABOUT A PRETTY SUNSET
***************************************************************************

--------------INTRO-AND-VERSE--------------

(Intro with acoustic, then the electric comes in):

In the other tabs, they think after G# he goes to F#
then back to E, but it should be G# -> B -> A:

    E   G#   B    A
e|-------------------|
B|-----------7----5--|
G|--9---13---8----6--|
D|--9---13---9----7--|
A|--7---11---9----7--|
E|--0---0------------|

I like to play it like this on my nylon string:

    E   G#   B    A
e|-------------------|
B|------9----7----5--|
G|--9---8----8----6--|
D|--9---6----9----7--|
A|--7---7----9----7--|
E|--0---0------------|

..Sounds just as good?


--------------INTERLUDE--------------

e|------------------------------------------------
B|--12----12----12---------12----12----12---------
G|-----13----13----14-13------13----13----14-13---
D|------------------------------------------------
A|------------------------------------------------
E|------------------------------------------------

  -------12----------------------------|
  ----------12-10-9-10-----------------|
  --11-9---------------9----------9----|
  -----------------------11-11-11------|
  -------------------------------------|
  -------------------------------------|

Harmonics behind this:

e|--12+-------|
B|-------12+--|
G|------------|
D|------------|
A|------------|
E|------------|


--------------BRIDGE--------------

The Chords from the main verse return once again
and 1 more guitar plays this riff behind it:

e|------------------------------------------------------------
B|------------------------------------------------------------
G|------------------------------------------------------------
D|--9\7-7-7-7-7-7/9-9--9\7-7-7-7-7-7/9-9--9-9-9-9-9-9-9-9\7---
A|------------------------------------------------------------
E|------------------------------------------------------------

  ------------------------------------------------------------|
  ------------------------------------------------------------|
  ------------------------------------------------------------|
  --7-7-7-7-7h9--------------9-9-9-9-9-7-6----9-9-9-9-9-7-6---|
  --------------7h9-----7-------------------------------------|
  ------------------7h9---------------------------------------|

Harmonics behind this:

e|--12+-------|
B|-------12+--|
G|------------|
D|------------|
A|------------|
E|------------|

Variation:

e|-----------|
B|--7+--12+--|
G|-----------|
D|-----------|
A|-----------|
E|-----------|

Variation for fun:

e|------------|
B|--19+--12+--|
G|------------|
D|------------|
A|------------|
E|------------|


--------------BREAKDOWN--------------

e|------------------------------------------|
B|-----12-12---------12---------12----------|
G|-13--------13---13----13---13----13-------|
D|-11--------11---------11---11--------11---|
A|------------------------------------------|
E|------------------------------------------|

e|--------------------------------------------------------|
B|--12----12-------12----12-------------------------------|
G|-----13----13-11----11-------11----11----9--9h11-9h11---|
D|--------------------------13----13----11----------------|
A|--------------------------------------------------------|
E|--------------------------------------------------------|


--------------OUTRO--------------

Here is a basic structure to the long outro of the song:

e|---------------------------------------------------------------
B|-----12-------12-------12----10------10------10------10--------
G|--------11-------11-------------9-------9-------9-------9------
D|--13-------13-------13----11------11------11------11------11---
A|---------------------------------------------------------------
E|---------------------------------------------------------------

  -------------------------------------------------------|
  --10---------10------10------10------10----------------|
  -----9----------9-------9-------9-------9-11h12-11p9---|
  -------11-12------12------12------12-------------------|
  -------------------------------------------------------|
  -------------------------------------------------------|

Often he will move down and play this (more slowly):

e|------------------------------------------------|
B|----5-----5-----5---3---------------------------|
G|------4-----4---------2-------------------------|
D|--6-----6-----6---4-----4-4-4-0--0-0-0-0-0-0-0--|
A|------------------------------------------------|
E|------------------------------------------------|

As a last thing, this is what he does at 4:48 in the song,

What you do is you strike the chord really fast (tremolo-ish picking):

e|--------|
B|---10---|
G|---9----|
D|---11---|
A|--------|
E|--------|


Right after the tremolo picking part:
e|-------------------|---------------------------|
B|-------------------|---------------------------|
G|--9-9-9-9-9-9-9-11-|-11-11-12-11-12-11-12-11---|
D|-------------------|---------------------------|
A|-------------------|---------------------------|
E|-------------------|---------------------------|



***************************************************************************
               15. MAKE EVERYONE HAPPY/MECHANICAL BIRDS
***************************************************************************


-----------------INTRO-----------------

There's quite a bit going on here, so you'll have perk up your ears
to play along (2 guitars, and a mandolin)

guitar 1:

e|-----------------------------------------|
B|-----------------------------------------|
G|-4---4-----------------------------------|
D|-5---5----4---4---5---5---5--5-5--5/7-7--|
A|-5---5----5---5---3---3---3--3-3--5/7-5--|
E|----------5---5---3---3---3--3-3---------|


guitar 2:


Riff 1:

e|-----3-------------------------------|
B|-----3-------------------------------|
G|-----0--------4--------5---5---------|
D|----------5-7---5--5-7---5---5-5/7-7-|
A|-2-----------------------------------|
E|-3-----------------------------------|

Riff 2:

e|-----3-----------------------------------|
B|-----3-----------------------------------|
G|-----0--------4--------------------------|
D|----------5-7---5------------------------|
A|-2---------------------------------------|
E|-3----------------8\3--8\3--8--10--12\8--|

Riff 3:

e|-----3-----------------------------------|
B|-----3-----------------------------------|
G|-----0--------4--------5---5----5-7-5-7--|
D|----------5-7---5--5-7---5---5-----------|
A|-2---------------------------------------|
E|-3---------------------------------------|

Riff 4:

e|-------------------------|------------------------------|
B|------------5------------|------------5-----------------|
G|----4h5--7-----5--7--4---|----4h5--7-----5--7--4--------|
D|-5---------------------5-|-5----------------------7--5--|
A|-------------------------|------------------------------|
E|-------------------------|------------------------------|

Riff 5 (eventually both guitars play this):

e|--------------------------------------|
B|--------------------------------------|
G|---4h5-7-5---2h4-5-4-----------4------|
D|-5---------4---------2-2-2/5-7---7-5--|
A|--------------------------------------|
E|--------------------------------------|


The various mandolin riffs transcribed for guitar (capo 5th fret):


variation 1 (beginning of song):

e|---0-2--5h0-0---0-0-2--0-0--0----------------------|
B|-3-----------------------------3------3-3---3---3--|
G|----------------------------------2h4-----4---4----|
D|---------------------------------------------------|
A|---------------------------------------------------|
E|---------------------------------------------------|

variation 2 (1:40):

e|--10-------|
B|-----10----|
G|--------7--|
D|-----------|
A|-----------|
E|-----------|

variation 3 (2:00):

e|---0-2-3-2-0-2-0-----|-------------------------------|
B|-3---------------3-3-|-----3-----3-----3-----3--0----|
G|---------------------|-2h4----4-----4-----4-------2--|
D|---------------------|-------------------------------|
A|---------------------|-------------------------------|
E|---------------------|-------------------------------|

variation 4 (2:40):

e|---0-2-3-2-0-----------------------------------------0--|
B|-3-----------3--3--3--3-------3----3----------3---3-----|
G|------------------------2-2h4----4---4-2--2h4---4-------|
D|--------------------------------------------------------|
A|--------------------------------------------------------|
E|--------------------------------------------------------|


----------------------TRANSITION----------------------

Riff 1 chords used:

e|--10-----7------7-----8----10---|
B|--12-----8------7-----8----10---|
G|--12-----9------7-----9----11---|
D|--12-----9------9-----10---12---|
A|--10-----7------9-----10---12---|
E|----------------7-----8----10---|

Riff 2 chords used (simple strumming):

e|-10-----9------7---9---|
B|-12-----10-----8---10--|
G|-12-----11-----9---11--|
D|-12-----11-----9---11--|
A|-10-----9------7---9---|
E|-----------------------|


----------------------QUICK-INTERLUDE----------------------


e|-23h22-23h22-22~~~---21b~~-21b~~--21b~~---x-x-x-x---23------23----|
B|-------------------------------------------------------23------21-|
G|------------------------------------------------------------------|
D|------------------------------------------------------------------|
A|------------------------------------------------------------------|
E|------------------------------------------------------------------|


----------------------OUTRO----------------------


Continue messing around with this riff:

e|-23h22-23h22-22~~~---21b~~-21b~~--21b~~---x-x-x-x---23------23----|
B|-------------------------------------------------------23------21-|
G|------------------------------------------------------------------|
D|------------------------------------------------------------------|
A|------------------------------------------------------------------|
E|------------------------------------------------------------------|


Guitar 2 harmonics:

e|-7+----7+------7+-----7+--------------------------------|
B|--------------------------------------------------------|
G|----7+~----7+~----7+~----7+~---7+-7+-7+-7+-7+-7+-5+-5+--|
D|--------------------------------------------------------|
A|--------------------------------------------------------|
E|--------------------------------------------------------|



***************************************************************************
                      16. SPACE TRAVEL IS BORING
***************************************************************************


----------PART 1 OF SONG----------

CHORDS:

     G   C5   A5
e|----------------|
B|---8------------|
G|---0------------|
D|---9---10---7---|
A|--10---10---7---|
E|-------8----5---|

G
Won herself a pass to some far off moon

       G
It was second class, but what's to lose and

C5
Lookin' out her window she could more than assume

         A5
That you can't see air or time.

                   Gadd9
e|----------------------------------------
B|---8--8--8--8-----10---8--8---8---------
G|---0--0--0--0---0--0---0--0---0---0--0--
D|---9--9--9--9---9--9---9--9---9---9--9--
A|--10-10-10-10--10-10--10-10--10--10-10--
E|----------------------------------------
   
     D             Dadd9
e|----------------------------------------
B|---8--8--8--8-----10---8--8---8---------
G|---0--0--0--0---0--0---0--0---0---0--0--
D|---x--x--x--x---x--x---x--x---x---x--x--
A|---9--9--9--9---9--9---9--9---9---9--9--
E|--10-10-10-10--10-10--10-10--10--10-10--

  ---------------------------------------------|
  ---------------------------------------------|
  ---------------------------------------------|
  --10-10-10--10-10-10-10\7--7--7--7-7--7------|
  --10-10-10--10-10-10-10\7--7--7--7-7--7--0---|
  --8--8--8---8--8--8--8-\5--5--5--5-5--5--0---|


----------PART 2 OF SONG----------

CHORDS:

     G   D   C5   A5
e|--------------------|
B|---8---8---0--------|
G|---0---0---x--------|
D|---9---x---10---7---|
A|--10---9---10---7---|
E|------10---8----5---|

          G
She's the only rocketeer in the whole damn place

     D
They gave her a mirror so she could take to her face

    C5
She still got plenty lonely but that's usually the case with

A5
Time, time , time.
                   
                   /.5\
e|-------------------------------------
B|---8--8--8--8-----10------8----------
G|---0--0--0--0---0--0------0----0--0--
D|---9--9--9--9---9--9------9----9--9--
A|--10-10-10-10--10-10-----10---10-10--
E|-------------------------------------

                    /.5\
e|--------------------------------------
B|---8--8--8--8-----10br------8---------
G|---0--0--0--0---0--0br------0---0--0--
D|---x--x--x--x---x--x--------x---x--x--
A|---9--9--9--9---9--9br------9---9--9--
E|--10-10-10-10--10-10br-----10--10-10--

  ---------------------------------------------|
  ---------------------------------------------|
  ---------------------------------------------|
  --10-10-10--10-10-10-10\7--7--7--7-7--7------|
  --10-10-10--10-10-10-10\7--7--7--7-7--7--0---|
  --8--8--8---8--8--8--8-\5--5--5--5-5--5--0---|


----------PART 3 OF SONG----------

CHORDS:

     G   D   C5   A5
e|--------------------|
B|---8---8---0--------|
G|---0---0---x--------|
D|---9---x---10---7---|
A|--10---9---10---7---|
E|------10---8----5---|

    G\0.5/
She started hearing voices sometime in June

    D\0.5/
She knew she could go crazy but didn't think that soon

        C5\0.5/
Now she doesn't feel lonely but she'd just as soon

A5   A5   A5
Try, try, try.


----------OUTRO----------

e|---------------------------------------------------------|
B|---------------------------------------------------------|
G|--------5-5---------------5-5-5-5------------------------|
D|--5--5--5-5---3-----5-5-5-5-5-5-5-3-3-3-2h3-2---2--------|
A|--5--5--3-3---3-----5-5-5-3-3-3-3-3-3-3-------3---3/-----|
E|--3--3--------1-----3-3-3---------1-1-1------------------|

e|---------------------------------------------------------|
B|---------------------------------------------------------|
G|--------5-5---------------5-5-5-5------------------------|
D|--5--5--5-5---3-----5-5-5-5-5-5-5-3-3-3-2h3-2--2h3-2-----|
A|--5--5--3-3---3-----5-5-5-3-3-3-3-3-3-3--------------3---|
E|--3--3--------1-----3-3-3---------1-1-1------------------|

e|---------------------------------------------------------|
B|---------------------------------------------------------|
G|--------5-5---------------5-5-5-5------------------------|
D|--5--5--5-5---3-----5-5-5-5-5-5-5-3-3-3-2h3-2---2h3-0----|
A|--5--5--3-3---3-----5-5-5-3-3-3-3-3-3-3-------3----------|
E|--3--3--------1-----3-3-3---------1-1-1------------------|

e|----------------------|
B|----------------------|
G|-------5-5------------|
D|--5--5-5-5----3-------|
A|--5--5-3-3----3-------|
E|--3--3--------1-------|


definitely willing to hear suggestions, comments and corrections

dec. 15/2006

================================================================
Добавлено: 18.06.2013
Другие материалы по этой песне:
  • Аккорды и текст

Страница создана 18.06.2013
http://primanota.ru/modest-mouse/this-is-a-long-drive-for-someone-with-nothing-to-think-about-chords.htm
Привет, Гость.
Предлагаем пройти революционный курс по гитаре.
Подарок от PrimaNota.Ru, забирай!