PrimaNota.ru - самый крупный в мире бесплатный архив песенных текстов, аккордов, табулатур и нот


Modest Mouse - Waydown - аккорды и текст, таба, видео

Регистрация Запомнить меня
Войти через:  Facebook Google Twitter Vk Yandex Mail.ru

Modest Mouse - Waydown - аккорды и текст, таба, видео

Печатать
Просмотров: 163
Waydown
Modest Mouse
Author/Artist: Modest Mouse
Title: Waydown
Album: The Fruit that ate itself
Email: scott_houle@hotmail.com


Standard Tuning


Intro


D  C B      A      G

------------------------------------------------------------------------
------------------------------------------------------------------------
-7/-5-4--4--------------------------------------------------------------
-x/-x-x--x---7-7-7--5--5------------------------------------------------
-5/-3-2--2---x-x-x--x--x------------------------------------------------
-------------5-5-5--3--3------------------------------------------------


Verses
  D   C  B  G A G

------------------------------------------------------------------------
------------------3-----------------------------------------------------
--7-/-5--4--4/6\4-4-----------------------------------------------------
--x-/-x--4--5/7\5-5-----------------------------------------------------
--5-/-3--2--5/7\5-5-----------------------------------------------------
------------------------------------------------------------------------

Chorus

  D                 C       G

----------------------------3-3-3---------------------------------------
--7-7-7-7-7-7-7-7---5-5-5---3-3-3---------------------------------------
--7-7-7-7-7-7-7-7---5-5-5---4-4-4---------------------------------------
--7-7-7-7-7-7-7-7---5-5-5---5-5-5---------------------------------------
--5-5-5-5-5-5-5-5---3-3-3---5-5-5---------------------------------------
----------------------------3-3-3---------------------------------------


This is played with much variation throughout. It is double tracked on
the cd, with one guitar playing full chords and another playing the
octaves. Just listen to it, because sometimes one is dominant and some-
times the other is. In the verse at the G A G slide part, different
notes are slid on at different times, so listen and figure out which of
the three sounds best to you.


Questions, comments: scott_houle@hotmail.com
     
Добавлено: 09.08.2013
Другие материалы по этой песне:
  • Аккорды и текст

Страница создана 22.02.2012
http://primanota.ru/modest-mouse/the-waydown-chords.htm
Привет, Гость.
Предлагаем пройти революционный курс по гитаре.
Подарок от PrimaNota.Ru, забирай!