PrimaNota.ru - самый крупный в мире бесплатный архив песенных текстов, аккордов, табулатур и нот


Modest Mouse - Sugar Boats - таба, видео

Регистрация Запомнить меня
Войти через:  Facebook Google Twitter Vk Yandex Mail.ru

Modest Mouse - Sugar Boats - таба, видео

Печатать
Просмотров: 74
Авторы музыки: Modest Mouse
Авторы текста: Isaac Brock
Intro:
E-----------------------------------------------------------------------------|
B-----------------------------------------------------------------------------|
G----9-----------9-----------9-----------------9-----11----12----11-----------|
D----9-----9-----9-----9-----9----9------------9-----11----12----11-----------|
A----7-----9-----7-----9-----7----9------------7-----9-----10----9------------|
E----------7-----------7----------7-------------------------------------------|

E-------------------------------------------------|
B-------------------------------------------------|
G----7-----------7-----------7----------7---------|
D----7-----7-----7-----7-----7----7-----5----7----|
A----5-----7-----5-----7-----5----7-----5----5----|
E----------5-----------5----------5----------5----|

Instrumental part (Isaac changes the order around each time, but it should be easy to 
listen and figure out):
E---------------------------------------------------------------------------------|
B---------------3---------3h5p3-----------------------3-------3-------3h5p3-------|
G----2h4---4--------4-------------3------2h4---4-------4-------4---------------4--|
D---------------------------------------------------------------------------------|
A---------------------------------------------------------------------------------|
E---------------------------------------------------------------------------------|

E---------------------------------------------------------------------------------------------|
B---------------------------------------------------------------------------------------------|
G----------------2------------2h4p2----------------------------2--------2---------------------|
D----2h4----4---------4-----------------4--------2h4----4---------4--------4----2h4p2p0-------|
A---------------------------------------------------------------------------------------------|
E---------------------------------------------------------------------------------------------|

E---------------------------------------------------------------------------------------------|
B---------------3-----------3-------------3h5p3-----------------------3----------5/3/5/7------|
G----2h4---4--------4-----------4------------------4------2h4---4-------4---------------------|
D---------------------------------------------------------------------------------------------|
A---------------------------------------------------------------------------------------------|
E---------------------------------------------------------------------------------------------|

E-------------------------------------------------------------------------------------------------|
B-------------------------------------------------------------------------------------------------|
G----------------2---------------------2-------------2----------------------2--------2------------|
D----2h4----4--------2h4----4--------------2h4-----------2h4----4-------4--------4-------2h4p2p0--|
A-------------------------------------------------------------------------------------------------|
E-------------------------------------------------------------------------------------------------|

Ending:
E---------------------------------|
B---------------------------------|
G---9---8---7---6---5---4---3---2-|
D---9---8---7---6---5---4---3---2-|
A---7---6---5---4---3---2---1---0-|
E---------------------------------|

x2

E---------------------------------|
B---------------------------------|
G---------------------------------|
D---9---8---7---6---5---4---3---2-|
A---9---8---7---6---5---4---3---2-|
E---7---6---5---4---3---2---1---0-|

x2
Добавлено: 06.11.2015
Вам также может быть интересно:
Другие материалы по этой песне:
  • Аккорды и текст

Страница создана 11.09.2015
http://primanota.ru/modest-mouse/sugar-boats-chords.htm
Привет, Гость.
Предлагаем пройти революционный курс по гитаре.
Подарок от PrimaNota.Ru, забирай!