PrimaNota.ru - самый крупный в мире бесплатный архив песенных текстов, аккордов, табулатур и нот


Modest Mouse - Shit In Your Cut - таба, видео

Регистрация Запомнить меня
Войти через:  Facebook Google Twitter Vk Yandex Mail.ru

Modest Mouse - Shit In Your Cut - таба, видео

Печатать
Просмотров: 80
Авторы музыки: Modest Mouse
Авторы текста: Isaac Brock
-------------------------------------------------------------------------------
                             Shit in your Cut - Modest Mouse
-------------------------------------------------------------------------------
Tabbed by:anchor
E-mail:

Tuning:

e|---------------------------------------------------------------------------|
B|---------------------------------------------------------------------------|
G|---------------------------------------------------------------------------|
D|---------------------------------------------------------------------------|
A|---------------------------------------------------------------------------|
E|-3-----/10\6/8-----/10\6\3-----/10\6\5---\1--/5----------------------------|

repeat throughout song. 


                                                         (Ad-lib end.)
e|-----------------------------------------------------------------------------|
B|-----------------------------------------------------------------------------|
G|--0h2-0h5--2--0--0h2-0h5--2--0------0h2-3-2--(---0---0--)-OR-(-3--2--3--2-)--|
D|----------------------------------3----------(-3---0----)----(------------)--|
A|-----------------------------------------------------------------------------|
E|-----------------------------------------------------------------------------|



e|-------------------------------|
B|--8---10--8---6---8------------|
G|--7---9---7---5---7---7-----5--|
D|--5---7---5---3---5---7-----5--|
A|----------------------5-----3--|
E|-------------------------------|
      Or w/e chord formation you want
          
          
Bridge: F     (Bb) Eb


************************************

| /   slide up
| \   slide down

************************************
Добавлено: 06.11.2015
Другие материалы по этой песне:
  • Аккорды и текст

Страница создана 06.11.2015
http://primanota.ru/modest-mouse/shit-in-your-cut-chords.htm
Привет, Гость.
Предлагаем пройти революционный курс по гитаре.
Подарок от PrimaNota.Ru, забирай!