PrimaNota.ru - самый крупный в мире бесплатный архив песенных текстов, аккордов, табулатур и нот


Modest Mouse - Pups To Dust - таба, видео

Регистрация Запомнить меня
Войти через:  Facebook Google Twitter Vk Yandex Mail.ru

Modest Mouse - Pups To Dust - таба, видео

Печатать
Просмотров: 99
Уроки эстрадного вокала в Санкт-Петербурге
Авторы музыки: Modest Mouse
Авторы текста: Isaac Brock
-------------------------------------------------------------------------------
                             Pups To Dust - Modest Mouse
-------------------------------------------------------------------------------
Tabbed by: lifelikerocks

Tuning: Standard

e|-----------------------5---------7p5-----------------------------|
B|---------------3--3h5-----7-----------7p5--7p5-------------------|
G|-------2--2h4-----------------------------------7p6--7/9--7p6\2--|
D|--2h4------------------------------------------------------------|
A|-----------------------------------------------------------------|
E|-----------------------------------------------------------------|

e|---------------------------------------------------------------------------------------------|
B|----------3----2h3--3/5--0------------3----2h3--3/5--0------------3----2h3--3/5--0----7+~~~--|
G|--2h4--4----------------------2h4--4----------------------2h4--4----------------------7+~~~--|
D|---------------------------------------------------------------------------------------------|
A|---------------------------------------------------------------------------------------------|
E|---------------------------------------------------------------------------------------------|


************************************

| /   slide up
| \   slide down
| h   hammer-on
| p   pull-off
| ~   vibrato
| +   harmonic

************************************
Добавлено: 06.11.2015
Другие материалы по этой песне:
  • Аккорды и текст

Страница создана 06.11.2015
http://primanota.ru/modest-mouse/pups-to-dust-chords.htm
Привет, Гость.
Предлагаем пройти революционный курс по гитаре.
Подарок от PrimaNota.Ru, забирай!