PrimaNota.ru - самый крупный в мире бесплатный архив песенных текстов, аккордов, табулатур и нот


Modest Mouse - Point A To Point B Infinity - таба, видео

Регистрация Запомнить меня
Войти через:  Facebook Google Twitter Vk Yandex Mail.ru

Modest Mouse - Point A To Point B Infinity - таба, видео

Печатать
Просмотров: 110
From Point A to point B (Infinity)
by Modest Mouse

x: mute note

Okay so I've read a bunch of tabs for this and none of them get it really right, now I 
don't think this is *just* right but then

again I'm pretty sure that if you asked Brock or any of the MM members how they played 
this originally I doubt they'd really know,

so I think this sounds pretty good and can be played by one guitar/ keyboard.

Intro/Verse:
e--------------------------------------------------------|
B--------------------------------------------------------|
G----------------0-0-------------------------0-----------|
D-0-0-0-0--2-2-0-----3-3-3-5-----------2-2-0---3-2-3-2---|
A-3-3-3-3--3-3-0--------------3-3-3-3--3-3-0-----------3-|
E-5-5-5-5---------------------5-5-5-5--------------------|

This may not sound exactly right at first, so you might want to adjust it a little bit 
to how you have the song in your head, but
it works for me just fine.


"Chrorus": okay first of all let me say this mayn't exactly how you'd want to strum it, 
but it should be easy to figure out what

works for you best. Also not sure if the D string should be muted or not, personally I 
mute it sometimes and others I just play

it.
e--------------------------------------------|
B--------------------------------------------|
G---12-12-12--9-9-9--14-14-14-16-14-16-14----|
D---x--x--x---x-x-x--x--x--x--x--x--x--x-----|
A---10-10-10--7-7-7--12-12-12-14-12-14-12----|
E--------------------------------------------|

Second part:

Okay the second part is played by an accordition or a keaboard of some sort, here are 
the notes played (not much point to playing

them on the guitar of course, just use a keyboard, but since this is a guitar tab...).

e-------------------------------------------------------------|
B-------------------------------13----------------------------|
G----------------------------14-------------------------------|
D--12-10-87-3-------12-10-15----------------------------------|
A-------------3-----------------------------------------------|
E-------------------------------------------------------------|

It may sound like a note or two is missing from the first part, but I think if you hear 
carefully it's just the chords he (whoever

that is) plays with his left hand. By the way, the chords are F and A#, and it goes like this

F
Ooooooonly you know how,
A#
That broke
F
I've been working on the railroad time ha-ho
A#

Not a hundred percent sure these are the actual lyrics, but you get it. Very fun to play.
Добавлено: 29.06.2013
Другие материалы по этой песне:
  • Аккорды и текст

Страница создана 29.06.2013
http://primanota.ru/modest-mouse/point-a-to-point-b-infinity-chords.htm
Привет, Гость.
Предлагаем пройти революционный курс по гитаре.
Подарок от PrimaNota.Ru, забирай!