PrimaNota.ru - самый крупный в мире бесплатный архив песенных текстов, аккордов, табулатур и нот


Modest Mouse - Heart Of Mine - таба, видео

Регистрация Запомнить меня
Войти через:  Facebook Google Twitter Vk Yandex Mail.ru

Modest Mouse - Heart Of Mine - таба, видео

Печатать
Просмотров: 95
Song: Heart Of Mine (Live)
Band: Modest Mouse

Pretty easy song. I have i think all of Isaac Brock's part, but i can't quite get Jim
Fairchild's part. There isn't a studio version of this song right now, so it may sound
different when/if it ever comes out. :)

Intro:
e:--------------------------------------------------------------|
B:--------------------------------------------------------------|
G:--9-8-7-6-5-4-3-2---9-8-7-6-5-4-3-2---------------------------|
D:--9-8-7-6-5-4-3-2---9-8-7-6-5-4-3-2---------------------------|
A:--------------------------------------------------------------|
E:--------------------------------------------------------------|


Main Riff:
e:--------------------------------------------------------------|
B:--------------------------------------------------------------|
G:--9-xx--------9-xx--------9-xx--------9-xx--------------------|
D:--9-xx--9-xx--9-xx--9-xx--9-xx--9-xx--9-xx--9-xx--------------|
A:--7-xx--9-xx--7-xx--9-xx--7-xx--9-xx--7-xx--9-xx--------------|
E:--------7-xx--------7-xx--------7-xx--------7-xx--------------|

e:--------------------------------------------------------------|
B:--------------------------------------------------------------|
G:--7-xx--------7-xx--------7-xx--------7-xx--------------------|
D:--7-xx--7-xx--7-xx--7-xx--7-xx--7-xx--7-xx--7-xx--------------|
A:--5-xx--7-xx--5-xx--7-xx--5-xx--7-xx--5-xx--7-xx--------------|
E:--------5-xx--------5-xx--------5-xx--------5-xx--------------|


Solo:
e:---------------------------------------------------------------------|
B:---------------------------------------------------------------------|
G:--------7~----7h9p7-----------7~----7h9p7----------------------------|
D:--7h9-9----9-------9----7h9-9-----9------9---------------------------|
A:---------------------------------------------------------------------|
E:---------------------------------------------------------------------|

e:--------------------------------------------------------------|
B:--------------------------------------------------------------|
G:---------------------------[Not too sure about this part]-----|
D:--------7~---7-----------7---7---7-9--------------------------|
A:--7h9-9----9---9---7h9-9---9---9------------------------------|
E:--------------------------------------------------------------|

I know that that isn't completely correct, but there are many variations, so if you just
mess around with it it'll sounds pretty close.

I did sort of figure out one part that Jim Fairchild plays. You hear him play this 
during the outro.

Jim Fairchild - Outro:
e:---------------------------------------------------------------|
B:---------------------------------------------------------------|
G:--/14-xx-------------------------------------------------------|
D:--/14-xx-------------------------------------------------------|
A:--/12-xx-------------------------------------------------------|
E:---------------------------------------------------------------|

The way i do it is that i hardly even press down on the frets, which gives it that
scratchy, muted sounds.
Hope this tab helps! :)
Добавлено: 14.09.2013
Другие материалы по этой песне:
  • Аккорды и текст

Страница создана 14.09.2013
http://primanota.ru/modest-mouse/heart-of-mine-chords.htm
Привет, Гость.
Предлагаем пройти революционный курс по гитаре.
Подарок от PrimaNota.Ru, забирай!