PrimaNota.ru - самый крупный в мире бесплатный архив песенных текстов, аккордов, табулатур и нот


Modest Mouse - Four Fingered Fisherman - текст песни, таба, видео

Регистрация Запомнить меня
Войти через:  Facebook Google Twitter Vk Yandex Mail.ru

Modest Mouse - Four Fingered Fisherman - текст песни, таба, видео

Печатать
Просмотров: 160
By: Modest Mouse
Song: Four Fingered Fisherman
tabbed by chrtes


| /  slide up
| \  slide down
| h  hammer-on
| p  pull-off
| ~  vibrato
| +  harmonic
| x  Mute note

This song is in standard tuning but if you have a tuner tune your guitar to be slighty
of tune so it sounds right.

e|------------------------------------------------|
b|------------------------------------------------|
G|------------------------------------------------|
D|----12------10------8-----8b--0--8b--0----------|
A|------------------------------------------------|
E|------------------------------------------------|

e|----------------------------------------------------|
b|----------------------------------------------------|
G|----------------------------------------------------|
D|----12------10------8---------------------5-----7---|
A|-----------------------------5------7---------------|
E|----------------------------------------------------|

e|--------------------------------------------------------|
b|--------------------------------------------------------|
G|--------------------------------------------------------|
D|----12------10------8---------------------5-----7~----5-|
A|-----------------------------5------7-------------------|
E|--------------------------------------------------------|


e|---------------------------------------------------|
b|---------------------------------------------------|
G|---------------------------------------------------|
D|----8b--0--8b--0-------12--------10-----8----------|
A|---------------------------------------------------|
E|---------------------------------------------------|


e|------------------------------------|
b|------------------------------------|
G|------------------------------------|
D|----------------------5-----7-------|
A|-----5------7-----------------------|
E|------------------------------------|

e|------------------------------------------------------------------------|
b|------------------------------------------------------------------------|
G|------------------------------------------------------------------------|
D|--5------7------9-----10------12--12----12--12--12-12-------------------|
A|------------------------------------------------------------------------|
E|------------------------------------------------------------------------|


e|-------------------------------------------------------------------|
b|-------------------------------------------------------------------|
G|-------------------------------------------------------------------|
D|--12-12-12--12-12-12------12--10--9--10--9-------------------------|
A|-----------------------------------------------------------10------|
E|-------------------------------------------------------------------|


This is played along with something else at the end of the song. Its not hard to hear 
else is begin played.

e|-----------------------------------------------|
b|-----------------------------------------------|
G|-----------------------------------------------|
D|----12----14----12-----14--12---12-------------|
A|-----------------------------------------------|
E|-----------------------------------------------|

e|-------------------------------------|
b|-------------------------------------|
G|------------4------------------------|
D|------------0------------------------|
A|------------2------------------------|
E|-------------------------------------|
Добавлено: 09.06.2012
Другие материалы по этой песне:
  • Аккорды и текст

Страница создана 02.05.2012
http://primanota.ru/modest-mouse/four-fingered-fisherman-chords.htm
Привет, Гость.
Предлагаем пройти революционный курс по гитаре.
Подарок от PrimaNota.Ru, забирай!