PrimaNota.ru - самый крупный в мире бесплатный архив песенных текстов, аккордов, табулатур и нот


Modest Mouse - Edit The Sad Parts - текст песни, таба, бас-таба, видео

Регистрация Запомнить меня
Войти через:  Facebook Google Twitter Vk Yandex Mail.ru

Modest Mouse - Edit The Sad Parts - текст песни, таба, бас-таба, видео

Печатать
Просмотров: 165
Edit the Sad Parts - Modest Mouse

Tabbed By: Sascha D. Frost
(1st tab)

Tuning: Standard

This, I'm sure, isn't the exact way to play the song, but it sounds alright. I just 
I'd put one up since the other guitar tab is guitar pro.  This is my 1st tab, so if you have 
suggestions, tell me.

Key:

p = pull off
/ = slide up
\ = slide down
h = hammer on
#(R3) =  let note ring for duration of 3 seconds
^ = bend note

Label (A)

------------------------2--2--2--2-2--2-2-------------------|
--3--3--3--3-3--3-3--0--3--3--3--3-3--3-3--0----------------|
--0--0--0--0-0--0-0--0--3--2--2--2-2--2-2--0----------------|
--2--2--2--2-2--2-2--0--0--0--0--0-0--0-0--0----------------|
--2--2--2--2-2--2-2--0---------------------0----------------|
------------------------------------------------------------|


repeat A{

(Start singing after you strike the first chord)

Sometimes all I really wanna feel is love,
sometimes I'm angry that I feel so ang - ry.

}

repeat A

repeat A{

Sometimes my feelings get in the way,
of what I rea - ly feel I needed to say - ay.

}

repeat

Label (B)

------------------------------------------------------------|
-10--10-10-10--10--12--12-10--8h10-10-----------------------|
--0---0--0--0---0---0---0--0--0--0--0-----------------------|
------------------------------------------------------------|
------------------------------------------------------------|
------------------------------------------------------------|

repeat B

Label (C)

------------------------------------------------------------|
-10-10-10-10-10-10-10-10-8h10-12p10-------------------------|
--0--0--0--0--0--0--0--0-0-----0----------------------------|
------------------------------------------------------------|
------------------------------------------------------------|
------------------------------------------------------------|

repeat C

Label(D)

------------------------------------------------------------|
------------------------------------------------------------|
------------------------------------------------------------|
--9--9--9--9--9--9--9--16-16-16-16-16-17-17-17-17-----------|
-10-10-10-10-10-10-10---------------------------------------|
------------------------------------------------------------|

Label(E)

------------------------------------------------------------|
------------------------------------------------------------|
------------------------------------------------------------|
------------------------------------------------------------|
--9--9--9--9--9--9--9--9--16-16-16-16-16-17-17-17-17--------|
-10-10-10-10-10-10-10-10------------------------------------|

repeat D
repeat E

Label (F)

------------------------------------------------------------|
------------------------------------------------------------|
-0-0-0-0-0-0-0-0--------------------------------------------|
-0-0-0-0-0-0-0-0-16-17-16-17-16-17-16-17-16-----------------|
------------------------------------------------------------|
------------------------------------------------------------|

Label (G)

------------------------------------------------------------|
------------------------------------------------------------|
------------------------------------------------------------|
-0-0-0-0-0-0-0-0-------17-16-------17-16--------------------|
-0-0-0-0-0-0-0-0-17-16-------17-16--------------------------|
------------------------------------------------------------|

repeat D
repeat E

repeat B{

If you stood in a circle,
then you'll all have a back to bite.

}

repeat C{

Back logged voices on the seven won - ders,
We're all so funny but he's lost his joke now.

}

repeat D{

A communication from the one lined joke.

}

repeat E{

A stand up comic and his rock musici - an.

}

repeat D{

Making so much noise you don't know when to listen.

}

repeat E

Label (H)

-10(R3)--10----------10-9----10-9----10---------------------|
-------------10(R2)-------10------10------------------------|
------------------------------------------------------------|
------------------------------------------------------------|
------------------------------------------------------------|
------------------------------------------------------------|

Label (I)

-10-9----10-9----10-9----10-9----10--9----------------------|
------10------10------10------10--------10^-----------------|
------------------------------------------------------------|
------------------------------------------------------------|
------------------------------------------------------------|
------------------------------------------------------------|

repeat B (try to blend (I) into (B))

repeat C

Label (J)

------------------------------------------------------------|
-10(R3)--12p10----------------------------------------------|
------------------------------------------------------------|
----------------12(R4)--------------------------------------|
------------------------------------------------------------|
------------------------------------------------------------|

repeat A

repeat A{

Why are you judg - in' people so damn hard,
you're ta - kin' your point of views a bit to fa - ar.

}

repeat A

repeat A{

I made my shoes to shine with my coal,
but the polish didn't shine the ho - ole.

}

repeat A

repeat B{

If you stood in a circle,
then you'll all have a back to bite.

}

repeat C{

Back logged voices on the seven won - ders,
We're all so funny but he's lost his joke now.

}

repeat D{

A communication from the one lined joke.

}

repeat E{

A stand up comic and his rock musici - an.

}

repeat D{

Making so much noise you don't know when to listen.

}

repeat E

repeat B{

Think it over

(repeat B)

There's the air of the height of the highrollers

}

repeat C{

Think it over

(repeat C)

You aint got nothing till ya know her

}
repeat J


END...
Добавлено: 07.05.2012
Другие материалы по этой песне:

Страница создана 18.03.2012
http://primanota.ru/modest-mouse/edit-the-sad-parts-chords.htm
Привет, Гость.
Предлагаем пройти революционный курс по гитаре.
Подарок от PrimaNota.Ru, забирай!