PrimaNota.ru - самый крупный в мире бесплатный архив песенных текстов, аккордов, табулатур и нот


Modern Day Escape - For The Hore - таба, видео

Регистрация Запомнить меня
Войти через:  Facebook Google Twitter Vk Yandex Mail.ru

Modern Day Escape - For The Hore - таба, видео

Печатать
Просмотров: 71
Rythm guitar "For the Horde"
Tuning Drop C#

Comment: A number above a bar line means repeat.
(ie 1 means "repeat once")
    |
    |
    |
   etc



Intro Part 1

Eb :----------------|----------------|----------------|----------------|
Bb :----------------|----------------|----------------|----------------|
Gb :----------------|----------------|----------------|----------------|
Db :----------------|----------------|----------------|----------------|
Ab :7-7-7-7-7-7-7-7-|7-7-7-7-7-7-7-7-|7-7-7-7-7-7-7-7-|7-7-7-7-7-7-7-7-|
Db :5-5-5-5-5-5-5-5-|5-5-5-5-5-5-5-5-|5-5-5-5-5-5-5-5-|5-5-5-5-5-5-5-5-|

Eb :----------------|----------------|----------------|----------------|
Bb :----------------|----------------|----------------|----------------|
Gb :----------------|----------------|----------------|----------------|
Db :----------------|----------------|----------------|0-0-----0-0-----|
Ab :7-7-7-7-7-7-7-7-|7-7-7-7-7-7-7-7-|7-7-7-7-7-7-7-7-|0-0-----0-0-----|
Db :5-5-5-5-5-5-5-5-|5-5-5-5-5-5-5-5-|5-5-5-5-5-5-5-5-|0-0-----0-0-----|
                                                       P.M.------------|


Intro Part 2 & Verse Part 1

Eb :| ----------------|-----------------|----------------|
Bb :| ----------------|-----------------|----------------|
Gb :|*----------------|-----------------|----------------|
Db :|*0---0-0-0-0-0-0-|-----0-----------|0---0-0-0-0-0-0-|
Ab :| 0---0-0-0-0-0-0-|3-h5-0-----------|0---0-0-0-0-0-0-|
Db :| 0---0-0-0-0-0-0-|-----0-5-*-3-*---|0---0-0-0-0-0-0-|
          P.M.--------|    P.M               P.M.--------|

Eb :--------------------------|----------------|-----------------|
Bb :--------------------------|----------------|-----------------|
Gb :--------7-p6-h7-p6-h7-p6--|*---------------|-----------------|
Db :5-3-0---------------------|0---0-0-0-0-0-0-|-----0-----------|
Ab :----0---------------------|0---0-0-0-0-0-0-|3-h5-0-----------|
Db :----0---------------------|0---0-0-0-0-0-0-|-----0-5-*-3-*---|
       P.M                         P.M.--------|    P.M

Eb :----------------|---------------------- 1|
Bb :----------------|---------------------- ||
Gb :----------------|----------------------*||
Db :0---0-0-0-0-0-0-|3-h5-p3-*-------------*||
Ab :0---0-0-0-0-0-0-|--------5-p3-*-3-h5--- ||
Db :0---0-0-0-0-0-0-|-------------5-*------ ||
        P.M.--------|


Verse Part 2

Eb :| ----------------|---------------- 1|----------------|
Bb :| ----------------|---------------- ||----------------|
Gb :|*----------------|----------------*||----------------|
Db :|*1---1-0-*-0-*-0-|--0-*-0-*-0-0-0-*||1---1-1-*-1-*-1-|
Ab :| 1---1-0-*-0-*-0-|--0-*-0-*-0-0-0- ||1---1-1-*-1-*-1-|
Db :| 1---1-0-*-0-*-0-|--0-*-0-*-0-0-0- ||1---1-1-*-1-*-1-|

Eb :----------------|----------------|
Bb :----------------|----------------|
Gb :----------------|----------------|
Db :--1-*-1-*-1-1-1-|1-*-1-1-*-1-*-1-|
Ab :--1-*-1-*-1-1-1-|1-*-1-1-*-1-*-1-|
Db :--1-*-1-*-1-1-1-|1-*-1-1-*-1-*-1-|

Eb :----------------|
Bb :----------------|
Gb :----------------|
Db :*-1-1-*---1-1-*-|
Ab :*-1-1-*---1-1-*-|
Db :*-1-1-*---1-1-*-|


Chorus 1 & 2

Eb :----------------|----------------|----------------------|
Bb :----------------|----------------|----------------------|
Gb :7---7-7---7-7-7-|7-7-7-7-7-7-7-7-|10---10-10---10-10-10-|
Db :7---7-7---7-7-7-|7-7-7-7-7-7-7-7-|10---10-10---10-10-10-|
Ab :5---5-5---5-5-5-|5-5-5-5-5-5-5-5-|-8----8--8----8--8--8-|
Db :x---------------|----------------|----------------------|

Eb :------------------------|----------------|
Bb :------------------------|----------------|
Gb :10-10-10-10-10-10-10-10-|5---5-5---5-5-5-|
Db :10-10-10-10-10-10-10-10-|5---5-5---5-5-5-|
Ab :-8--8--8--8--8--8--8--8-|3---3-3---3-3-3-|
Db :------------------------|----------------|

Eb :----------------|----------------|----------------|----------------|
Bb :----------------|----------------|----------------|----------------|
Gb :5-5-5-5-5-5-5-*-|----------------|----------------|----------------|
Db :5-5-5-5-5-5-5-5-|5---*-3-3-3-3-3-|3---*-0-0-0-0---|0---0-0-0-0-0-0-|
Ab :3-3-3-3-3-3-3-5-|5---*---------3-|3---*-----------|0---0-0-0-0-0-0-|
Db :--------------5-|5---*---------3-|3---*-----------|0---0-0-0-0-0-0-|
                 P.M              P.M   
                
Eb :----------------|----------------|----------------|----------------|
Bb :----------------|----------------|----------------|----------------|
Gb :----------------|----------------|----------------|----------------|
Db :0-0-0-0-0-0-0-0-|8---8-8-8-8-8-8-|8-8-8-8-8-8-8-8-|3---3-3-3-3-3-3-|
Ab :0-0-0-0-0-0-0-0-|8---8-8-8-8-8-8-|8-8-8-8-8-8-8-8-|3---3-3-3-3-3-3-|
Db :0-0-0-0-0-0-0-0-|8---8-8-8-8-8-8-|8-8-8-8-8-8-8-8-|3---3-3-3-3-3-3-|

Eb :----------------|----------------------|----------------------|
Bb :----------------|----------------------|----------------------|
Gb :----------------|----------------------|----------------------|
Db :3-3-3-3-3-3-3-5-|5---*---------------5-|5---*---------------5-|
Ab :3-3-3-3-3-3-3-5-|5---*-8-h10-p8-\5---5-|5---*-8-h10-p8-\5---5-|
Db :3-3-3-3-3-3-3-5-|5---*---------------5-|5---*---------------5-|
                 P.M              P.M                          P.M

Eb :----------------------|----------------------|
Bb :----------------------|----------------------|
Gb :----------------------|----------------------|
Db :3---*---------------3-|3---*---------------0-|
Ab :3---*-8-h10-p8-\3---3-|3---*-8-h10-p8-\3---0-|
Db :3---*---------------3-|3---*---------------0-|
                       P.M                    P.M


Verse 2

Eb :----------------|----------------|----------------|----------------|
Bb :----------------|----------------|----------------|----------------|
Gb :----------------|----------------|----------------|----------------|
Db :1-----0-*-0-*-0-|*-0-*-0-*-0-*-0-|*-0-*-0-*-0-*-0-|*-0-*-0-*-0-*-0-|
Ab :1-----0-*-0-*-0-|*-0-*-0-*-0-*-0-|*-0-*-0-*-0-*-0-|*-0-*-0-*-0-*-0-|
Db :1-----0-*-0-*-0-|*-0-*-0-*-0-*-0-|*-0-*-0-*-0-*-0-|*-0-*-0-*-0-*-0-|

Eb :----------------|
Bb :----------------|
Gb :----------------|
Db :1-----1-*-1-*-1-|
Ab :1-----1-*-1-*-1-|
Db :1-----1-*-1-*-1-|

Eb :----------------|----------------|----------------|----------------|
Bb :----------------|----------------|----------------|----------------|
Gb :----------------|----------------|----------------|----------------|
Db :*-1-*-1-*-1-*-1-|*-1-*-1-*-1-*-1-|*-1-*-1-*-1-1-1-|0---------------|
Ab :*-1-*-1-*-1-*-1-|*-1-*-1-*-1-*-1-|*-1-*-1-*-1-1-1-|0---------------|
Db :*-1-*-1-*-1-*-1-|*-1-*-1-*-1-*-1-|*-1-*-1-*-1-1-1-|0---------------|

Eb :----------------|----------------|----------------|----------------|
Bb :----------------|----------------|----------------|----------------|
Gb :----------------|----------------|----------------|----------------|
Db :----------------|----------------|--------------0-|1---------------|
Ab :----------------|----------------|--------------0-|1---------------|
Db :----------------|----------------|--------------0-|1---------------|

Eb :----------------|----------------|----------------|| ----------------|
Bb :----------------|----------------|----------------|| ----------------|
Gb :----------------|----------------|----------------||*----------------|
Db :----------------|----------------|--------------0-||*1---1-0---0---0-|
Ab :----------------|----------------|--------------0-|| 1---1-0---0---0-|
Db :----------------|----------------|--------------0-|| 1---1-0---0---0-|
                                                               P.M-------|

Eb :---------------- 1|----------------|----------------|----------------|
Bb :---------------- ||----------------|----------------|----------------|
Gb :----------------*||----------------|----------------|----------------|
Db :--0---0---0-0-0-*||1---1-1---1---1-|--1---1---1-1-1-|3---3-3---3---3-|
Ab :--0---0---0-0-0- ||1---1-1---1---1-|--1---1---1-1-1-|3---3-3---3---3-|
Db :--0---0---0-0-0- ||1---1-1---1---1-|--1---1---1-1-1-|3---3-3---3---3-|
      P.M------------||      P.M------------------------|      P.M-------|

Eb :----------------|--------------------|----------------------|
Bb :----------------|--------------------|----------------------|
Gb :----------------|------10-10-10-*-10-|10-10-*-10-*-10-10-10-|
Db :--5-*-5-*-5-5-5-|0---0--x--x--x----x-|-x--x----x----x--x--x-|
Ab :--5-*-5-*-5-5-5-|0---0--8--8--8-*--8-|-8--8-*--8-*--7--7--7-|
Db :--5-*-5-*-5-5-5-|0---0--*------------|----------------------|

Eb :--------------------|----------------------|--------------------|
Bb :--------------------|----------------------|--------------------|
Gb :*-----10-10-10-*-10-|10-10-*-12-*-10-10-10-|*-----10-10-10-*-10-|
Db :0---0--x--x--x----x-|-x--x----x----x--x--x-|0---0--x--x--x----x-|
Ab :0---0--8--8--8-*--8-|-8--8-*-10-*--7--7--7-|0---0--8--8--8-*--8-|
Db :0---0--*------------|----------------------|0---0--*------------|

Eb :----------------------|----------------|----------------|
Bb :----------------------|----------------|----------------|
Gb :10-10-*-10-*-10-10-10-|*---------------|----------------|
Db :-x--x----x----x--x--x-|8---------------|5---------------|
Ab :-8--8-*--8-*--7--7--7-|8---------------|5---------------|
Db :----------------------|8---------------|5---------------|


Bridge

Eb :| -------------------|----------------|-------------------|
Bb :| -------------------|----------------|-------------------|
Gb :|*----9-/10-\9---*-7-|*-9-*-7---5-5-5-|*---9-/10-\9---*-7-|
Db :|*0---9-/10-\9---0-7-|*-9-*-7---5-5-5-|0---9-/10-\9---0-7-|
Ab :| 0---7-/-8-\7---0-5-|*-7-*-5---3-3-3-|0---7-/-8-\7---0-5-|
Db :| 0---*----------0---|----------------|0---*----------0---|
                    P.M                                  P.M

Eb :----------------|-------------------|----------------|
Bb :----------------|-------------------|----------------|
Gb :*-9-*-7-----7-7-|*---9-/10-\9---*-7-|*-9-*-7---5-5-5-|
Db :*-9-*-7-----7-7-|0---9-/10-\9---0-7-|*-9-*-7---5-5-5-|
Ab :*-7-*-5-----5-5-|0---7-/-8-\7---0-5-|*-7-*-5---3-3-3-|
Db :----------------|0---*----------0---|----------------|
                                   P.M    
          
Eb :-------------------|---------------- 1|----------------|
Bb :-------------------|---------------- ||----------------|
Gb :*---9-/10-\9---*-7-|*-7-*-7-*-------*||----------------|
Db :0---9-/10-\9---0-7-|*-7-*-7-*-------*||0---------------|
Ab :0---7-/-8-\7---0-5-|*-5-*-5-*------- ||0---------------|
Db :0---*----------0---|---------------- ||0---------------|
                  P.M

Eb :-------------------------|---------------------|
Bb :-------------------------|---------------------|
Gb :-------------------------|---------------------|
Db :0-0-0-0-0-0-0-----0-0-0-0|0-0-0-0-0-0----------|
Ab :0-0-0-0-0-0-0-----0-0-0-0|0-0-0-0-0-0----------|
Db :0-0-0-0-0-0-0-----0-0-0-0|0-0-0-0-0-0----------|
    P.M----------------------|P.M------------------|

Eb :-------------------------|---------------------|-----------------|
Bb :-------------------------|---------------------|-----------------|
Gb :-------------------------|---------------------|10---------------|
Db :0-0-0-0-0-0-0-----0-0-0-0|0-0-0-0-0-0----------|-x---------------|
Ab :0-0-0-0-0-0-0-----0-0-0-0|0-0-0-0-0-0----------|-8---------------|
Db :0-0-0-0-0-0-0-----0-0-0-0|0-0-0-0-0-0----------|-----------------|
    P.M----------------------|P.M------------------|

Eb :-----------------|----------------|-----------------|----------------|
Bb :-----------------|----------------|-----------------|----------------|
Gb :--------12-------|9---------------|-----10----------|----------------|
Db :---------x-------|x---------------|-----------------|----------------|
Ab :--------10-------|7---------------|------8----------|----------------|
Db :-----------------|----------------|-----------------|----------------|

Eb :----------------|----------------|
Bb :----------------|----------------|
Gb :----------------|*---------------|
Db :----------------|----------------|
Ab :----------------|*---------------|
Db :----------------|----------------|


Chorus 3

Eb :----------------|----------------|----------------------|
Bb :----------------|----------------|----------------------|
Gb :7---7-7---7-7-7-|7-7-7-7-7-7-7-7-|10---10-10---10-10-10-|
Db :7---7-7---7-7-7-|7-7-7-7-7-7-7-7-|10---10-10---10-10-10-|
Ab :5---5-5---5-5-5-|5-5-5-5-5-5-5-5-|-8----8--8----8--8--8-|
Db :----------------|----------------|----------------------|

Eb :------------------------|----------------|
Bb :------------------------|----------------|
Gb :10-10-10-10-10-10-10-10-|5---5-5---5-5-5-|
Db :10-10-10-10-10-10-10-10-|5---5-5---5-5-5-|
Ab :-8--8--8--8--8--8--8--8-|3---3-3---3-3-3-|
Db :------------------------|----------------|

Eb :----------------|----------------|----------------|| ----------------|
Bb :----------------|----------------|----------------|| ----------------|
Gb :5-5-5-5-5-5-5-*-|----------------|----------------||*----------------|
Db :5-5-5-5-5-5-5-5-|5---*-3-3-3-3-3-|3---*-0-0-0-0---||*0---0-0-0-0-0-0-|
Ab :3-3-3-3-3-3-3-5-|5---*---------3-|3---*-----------|| 0---0-0-0-0-0-0-|
Db :--------------5-|5---*---------3-|3---*-----------|| 0---0-0-0-0-0-0-|
                 P.M              P.M

Eb :----------------|----------------|----------------|----------------|
Bb :----------------|----------------|----------------|----------------|
Gb :----------------|----------------|----------------|----------------|
Db :0-0-0-0-0-0-0-0-|8---8-8-8-8-8-8-|8-8-8-8-8-8-8-8-|3---3-3-3-3-3-3-|
Ab :0-0-0-0-0-0-0-0-|8---8-8-8-8-8-8-|8-8-8-8-8-8-8-8-|3---3-3-3-3-3-3-|
Db :0-0-0-0-0-0-0-0-|8---8-8-8-8-8-8-|8-8-8-8-8-8-8-8-|3---3-3-3-3-3-3-|

Eb :----------------|----------------|---------------- 1|----------------|
Bb :----------------|----------------|---------------- ||----------------|
Gb :----------------|----------------|----------------*||----------------|
Db :3-3-3-3-3-3-3-5-|5---5-5-5-5-5-5-|3---3-3-3-3-3-3-*||5---5-5-5-5-5-5-|
Ab :3-3-3-3-3-3-3-5-|5---5-5-5-5-5-5-|3---3-3-3-3-3-3- ||5---5-5-5-5-5-5-|
Db :3-3-3-3-3-3-3-5-|5---5-5-5-5-5-5-|3---3-3-3-3-3-3- ||5---5-5-5-5-5-5-|
                 P.M     P.M---------|    P.M--------- ||    P.M---------|    

Eb :----------------|----------------|----------------|----------------|
Bb :----------------|----------------|----------------|----------------|
Gb :----------------|----------------|----------------|7-------7---*---|
Db :----------------|----------------|----------------|x-------x-------|
Ab :5-*-7-*-5-*-3---|----------------|----------------|5-------5---*---|
Db :----------------|----------------|----------------|----------------|

END
Добавлено: 11.09.2013
Вам также может быть интересно:
Другие материалы по этой песне:
  • Аккорды и текст

Страница создана 11.09.2013
http://primanota.ru/modern-day-escape/for-the-hore-chords.htm
Привет, Гость.
Предлагаем пройти революционный курс по гитаре.
Подарок от PrimaNota.Ru, забирай!